Stop Censorship
 
 

 
 1-9 a b c d e f g h i j k l m n o p q r s t u v w x y z
   12 Inch - Hell For Leather Tab    


HELL FOR LEATHER
Band : 12 Inch
Writen By : Sam Taylor for 12 Inch
Extremeley accurate
All due credit to Sam fantastic work !!

Intro

E-----15----14---15----14----15----14-----15-----14----------------------------
B-12----12----12---12-----12---12-----12-----12--------------------------------
G------------------------------------------------------------------------------
D------------------------------------------------------------------------------
A------------------------------------------------------------------------------
E------------------------------------------------------------------------------

E------------------------------------------------------------------------------
B----15---14---15---14---15---14---15---14-------------------------------------
G-12---12---12---12---12---12---12---12----------------------------------------
D------------------------------------------------------------------------------
A------------------------------------------------------------------------------
E------------------------------------------------------------------------------

E-----15----14---15----14----15----14-----15-----14----------------------------
B-12----12----12---12-----12---12-----12-----12--------------------------------
G------------------------------------------------------------------------------
D------------------------------------------------------------------------------
A------------------------------------------------------------------------------
E------------------------------------------------------------------------------

E------------------------------------------------------------------------------
B----15---14---15---14---15---14---15---14-------------------------------------
G-12---12---12---12---12---12---12---12----------------------------------------
D------------------------------------------------------------------------------
A------------------------------------------------------------------------------
E------------------------------------------------------------------------------

Bridge
E-------------------------------------------------------
B-------------------------------------------------------
G-------------------------------------------------------
D-------------------------------------------------------
A-2------5----7--8--7--5--4--2--------------------------
E-0------3----5--6--5--3--2--0--------------------------

verse
E --------------------------------------------------------------------------
B --------------------------------------------------------------------------
G --------------------------------------------------------------------------
D --------------------------------------------------------------------------
A -2- 2-2-2-2-2-2 -2-2-2-2-2-2-2-5-2-2-2-2-2-2-7-2-2-2-2-9-7-5-2-----------
E -0- 0-0-0-0-0-0 -0-0-0-0-0-0-0-3-0-0-0-0-0-0-5-0-0-0-0-7-5-3-0-----------


chorus

E---------------------------------------------------------------------------
B---------------------------------------------------------------------------
G---------------------------------------------------------------------------
D---------------------------------------------------------------------------
A-2-2-2-2-2-2-2- 8-8-8-8-8-8-8- 7-7-7-7-7-7-7- 8-8-8-8-8-8-8- 2-2-2-2-2-2-2-
E-0-0-0-0-0-0-0- 6-6-6-6-6-6-6- 5-5-5-5-5-5-5- 6-6-6-6-6-6-6- 0-0-0-0-0-0-0-

E--------------------------------------------------------------------------
B--------------------------------------------------------------------------
G--------------------------------------------------------------------------
D--------------------------------------------------------------------------
A 8-8-8-8-8-8-8- 7-7-7-7-7-7-7- 8-8-8-8-8-8-8- 2-2-2-2-2-2-2---------------
E 6-6-6-6-6-6-6- 5-5-5-5-5-5-5- 6-6-6-6-6-6-6- 0-0-0-0-0-0-0---------------