Stop Censorship
 
 

 
 1-9 a b c d e f g h i j k l m n o p q r s t u v w x y z
   3rd Grade Dropout - Downtown Tab    

3rd Grade Dropout - Downtown

Tabbed By Chris Huener (chr@walk.to)

Intro
E|------------------------------------------------------------------|
B|------------------------------------------------------------------|
G|------------------------------------------------------------------|
D|------------------------------------------------------------------|
A|-0-0-4-0-5-0-4-0-5-0-4-0-7-7-5-4-0-(rest for bass fill)--7-5-4----|
E|------------------------------------------------------------------|

Verse
E|-----------------------------------|
B|-----------------------------------|
G|---------6-------7-------9---------|
D|-7-------6-------7-------9---------|
A|-7-------4-------5-------7---------|
E|-5---------------------------------|

E|--------------------------------------------|
B|--------------------------------------------|
G|-------------6--------------7-------9-------|
D|-7-----------6--------------7-------9-------|
A|-7-----------4--------------5-------7-------|
E|-5------------------------------------------|
I`m having trouble tryin` to understand,
E|--------------------------------------------------|
B|--------------------------------------------------|
G|---------------6--------------7---------9---------|
D|-7-------------6--------------7---------9---------|
A|-7-------------4--------------5---------7---------|
E|-5------------------------------------------------|
Just what the hell I`m doing wrong

E|--------------------------------------------------------------------|
B|--------------------------------------------------------------------|
G|----------------6-------------------7----------------------9--------|
D|-7--------------6-------------------7----------------------9--------|
A|-7--------------4-------------------5----------------------7--------|
E|-5------------------------------------------------------------------|
Every time i`m out with a group of friends just tryin` to skate
E|--------------------------------------------------------|
B|--------------------------------------------------------|
G|----------------6--------------------7--------9---------|
D|-7--------------6--------------------7--------9---------|
A|-7--------------4--------------------5--------7---------|
E|-5------------------------------------------------------|
Those ***ing cops always chase us down

Pre Chorus
E|-----------------------------------|
B|-----------------------------------|
G|---------6-------7-------9---------|
D|-7-------6-------7-------9---------|
A|-7-------4-------5-------7---------|
E|-5---------------------------------|
And they say it`s against the law

E|----------------------------------------|
B|----------------------------------------|
G|---------6---------7-----------9--------|
D|-7-------6---------7-----------9--------|
A|-7-------4---------5-----------7--------|
E|-5--------------------------------------|
And they say we`re destroying downtown

Chorus
E|-----------------------------------------------------------|
B|-----------------------------------------------------------|
G|-7----------------------------9----------------------------|
D|-7----------------------------9-------7----------------9---|
A|-5----------------------------7-------7----------------9---|
E|--------------------------------------5----------------7---|
But there`s no where else to go, and they said no football

E|-----------------------------------------------|
B|-----------------------------------------------|
G|-7-------------------------9-------------------|
D|-7-------------------------9-------------------|
A|-5-------------------------7-------------------|
E|-----------------------------------------------|
So we`ll have to take our chance on downtown

Post Chorus
E|-----------------------------------|
B|-----------------------------------|
G|---------6-------7-------9---------|
D|-7-------6-------7-------9---------|
A|-7-------4-------5-------7---------|
E|-5---------------------------------|

E|-----------------------------------|
B|-----------------------------------|
G|---------6-------7-------4-4-------|
D|-7-------6-------7-------4-4-------|
A|-7-------4-------5-------2-2-------|
E|-5---------------------------------|


Verse

I`m having trouble tryin` to comprehend
Just what the *** I`m doing wrong
Every time we`re out in this garage just tryin` to play
Those ***ing cops always come around


Pre Chorus

And they say that we`re playing to loud
But we`re not doing anything wrong


Chorus

But when there`s no where else to play
It makes us feel this way
So we`ll have to take our chance on this garage

Outro (same as intro)