Stop Censorship
 
 

 
 1-9 a b c d e f g h i j k l m n o p q r s t u v w x y z
   47 Bulletin - Bash Your Head Tab    

Band: 47th bulletin
song: bash your head
Album:???

_______________________________
Key:
Palm mute - ...
Slide - /
_______________________________

Intro Pt. 1
e|---------------------------------------
b|---------------------------------------
G|---------------------------------------
D|---------------5---5-------------5----4 X2
A|-----9-10-9------5------7-8-7----5----4
D|--99--------55-------77-------55---44--
.. .. .. .. ..

e|----------------------------------------------------------
b|----------------------------------------------------------
G|----------------------------------------------------------
D|---------------------5-------5---------------------5----4- X2
A|-----9---10---9----------5----------7---8---7------5----4-
D|--99---9----9---9-55---5---5---5-77---7---7---7-55---44---
.. . . . .. . . . .. . . . .. ..
Intro Pt. 2
e|----------------------------------------------------------------
b|----------------------------------------------------------------
G|----------------------------------------------------------------
D|--9999999999999-5/777777777777-555-444-555-444-555-444-555-444--
A|--9999999999999-5/777777777777-555-555-555-555-555-555-555-555--
D|--9999999999999-5/777777777777-555-555-555-555-555-555-555-555--
.. .. ..

Verse 1
e|--------------------------------------------------------------------------
b|--------------------------------------------------------------------------
G|--------------------------------------------------------------------------
D|--7/99-999-999-99--999-999-999-9-7-555-555-555-55-555-555-------3---------
A|--7/99-999-999-99--999-999-999-9-7-555-555-555-55-555-555-5-4-5--5-4-0----
D|--7/99-999-999-99--999-999-999-9-7-555-555-555-55-555-555-----------------


e|--------------------------------------------------------------------------
b|--------------------------------------------------------------------------
G|--------------------------------------------------------------------------
D|--7/99-999-999-99--999-999-999--------555-555-555-55-555-555-------3------
A|--7/99-999-999-99--999-999-999-9-10-9-555-555-555-55-555-555-5-4-5--5-4-0-
D|--7/99-999-999-99--999-999-999--------555-555-555-55-555-555--------------


Chorus 1
e|-------------------------------------------
b|-------------------------------------------
G|-------------------------------------------
D|--7/99-121212--999-121212-555-999-555-777-- X 2
A|--7/99-121212--999-121212-555-999-555-777--
D|--7/99-121212--999-121212-555-999-555-777--