Stop Censorship
 
 

 
 1-9 a b c d e f g h i j k l m n o p q r s t u v w x y z
   6 Foot Fensiz - The Solo Song Tab    

Band:6 Foot Fensiz
Song:The Solo Song
Album:Take Out The Trash
Tabber:Jamydod

Main Riff:
E-------------------------------------------
B-------------------------------------------
G------------3-----------2------------------
D------2--3--------2--3---------------------
A---3-----------3---------------------------
E-------------------------------------------

Background Chords During Bass Solo:
E------------------------------------------
B------------------------------------------
G---5----7----9----9-----------------------
D---5----7----9----9-----------------------
A---3----5----7----9-----------------------
E------------------7-----------------------
Order:
Main Riff x30
Bass Solo + Background Chords x2
Main Riff x2