Stop Censorship
 
 

 
 1-9 a b c d e f g h i j k l m n o p q r s t u v w x y z
   6 Foot Fensiz - To Good To Be True Tab    

Band:6 Foot Fensiz
Song:To Good To Be To Be True
Album:Take Out The Trash
Tabber:Jamydod

Intro/Verse
E--------------------------------------------
B--------------------------------------------
G--------------------------------------------
D--------------7--7--------6--6-----5-----4--
A--------5--5--------4--4--------3-----2-----
E--------------------------------------------

Chorus:
E------------------------------------------
B------------------------------------------
G---22-----5------------------5------------
D---22-----5-----5-----33-----5------5-----
A---00-----3-----5-----33-----3------5-----
E----------------3-----11------------3-----

Interlude:
E-------------------------------------------
B-------------------------------------------
G-------------------------------------------
D-----------------17--1919--1414--1717------
A-----------------15--1717--1212--1515------
E-------------------------------------------

Order:
Intro x8
Chorus x2
Intro x4
Chorus x2
Interlude x3
Bass Solo
Chorus x6

Another of my bands songs but this one is`nt that good