Stop Censorship
 
 

 
 1-9 a b c d e f g h i j k l m n o p q r s t u v w x y z
   Accept - Restless And Wild Tab    

Accept-Restless and Wild
************************
tapped by : Kevin Imbrechts (kef01)
e-mail:kevin_imbrechts@hotmail.com

Intro
=====
|---------------------------------------------------------------|
|---------------------------------------------------------------|
|---------------------------------------------------------------|
|---------------------------------------------------------------|
|---------------------------------------------------------------|
|-0-000-000-000-000-000-000-000-000-000-000-000-000-000-000-----|

Main Riff
=========
|----------------------------------------------|
|----------------------------------------------|
|----------------------------------------------|
|-7--9----------7-----5---7--9---------7----2-2|
|-5--7----------5-----3---5--7---------5----0-0|
|------000-000----000----------000-000---00----|

Verse
=====
|--------------------|
|--------------------|
|-5----7-------------|
|--------------------|
|-3----5-------------|
|--------------------|

Bridge
======
|----------------------------------------------|
|----------------------------------------------|
|----------------------------------------------|
|-5------2-4-2-4-5-----------------------------|
|-3------0-2-0-2-3-----------------------------|
|----------------------------------------------|

Chorus
======
|----------------------------------------------|
|----------------------------------------------|
|----------------------------------------------|
|---------------------5---------------------2--|
|-7-5-7-7-5-7-7-5-7-7-3-7-5-7-7-5-7-7-5-7-7-0--|
|----------------------------------------------|

|-------------------------------------------------------------------------|
|-------------------------------------------------------------------------|
|-------------------------------------------------------------------------|
|---------------------5---------------------------------------------------|
|-7-5-7-7-5-7-7-5-7-7-3-7-5-7-7-5-7-7-5-7-7-6-5-4-3-2-1-------------------|
|-------------------------------------------------------------------------|

After chorus
============
|----------------------------------------------|
|-7--9---------7-----5---7-9---------7----2-2--|
|-5--7---------5-----3---5-7---------5----0-0--|
|------000-000---000---------000-000---00------|
|----------------------------------------------|
|----------------------------------------------|

Interlude before the solo
=========================
|----------------------------------------------|
|----------------------------------------------|
|----------------------------------------------|
|-4-4-4----9-7-9-9-9------------7-6-7-6--4-----|
|-2-2-2----7-5-7-7-7-----7-7-7--5-4-5-4--2-----|
|------------------------5-5-5-----------------|

|----------------------------------------------|
|----------------------------------------------|
|----------------------------------------------|
|-4-4-4----9-7-9-9-9------------7-6-7-6--------|
|-2-2-2----7-5-7-7-7-----7-7-7--5-4-5-4-2-4----|
|------------------------5-5-5----------0-2----|

riff under solo
===============
|--------------------------------------------------|
|--------------------------------------------------|
|--------------------------------------------------|
|-4-4--4-4--4-4--4-4-------------------------------|
|-2-2--2-2--2-2--2-2--2-2--2-2--4-4--4-4-----------|
|---------------------0-0--0-0--2-2--2-2-----------|
play 3x

|--------------------------------------------------|
|--------------------------------------------------|
|--------------------------------------------------|
|-4-4--4-4--4-4--4-4-----------9-7-9-7-4--5--7--9--|
|-2-2--2-2--2-2--2-2--2-2--2-2-7-5-7-5-2--3--5--7--|
|---------------------0-0--0-0---------------------|

Ending goes like this
=====================
|---------------------------------|
|---------------------------------|
|-7--9----------7-----------7-----|
|-5--7----------5-7-9--7-9--5-9---|
|------000-000----5-7--5-7----7---|
|---------------------------------|

------------------------------------------------------------------------