Stop Censorship
 
 

 
 1-9 a b c d e f g h i j k l m n o p q r s t u v w x y z
   Accept - Xtc Tab    

Accept-XTC
**********
tapped by:Kevin Imbrechts
mail:Kevin_imbrechts@hotmail.com

the intro solo
=============

E ------------------------------------------------------------------------------------------
H 17--13------17--13------17-13----17--13------15--13------17-13----------------------------
G --------14----------14--------14---------13----------14--------14-------------------------
D ------------------------------------------------------------------------------------------
A ------------------------------------------------------------------------------------------
E ------------------------------------------------------------------------------------------

E ------------------------------------------------------------------------------------------
H 18--13------18--13------18-13----18--13------18--13------18-13----------------------------
G --------14----------14--------14---------14----------14--------14-------------------------
D ------------------------------------------------------------------------------------------
A ------------------------------------------------------------------------------------------
E ------------------------------------------------------------------------------------------

E ------------------------------------------------------------------------------------------
H 17--12------17--12------17-12----17--12------17--12------17-12----------------------------
G --------13----------13--------13---------13----------13--------13-------------------------
D ------------------------------------------------------------------------------------------
A ------------------------------------------------------------------------------------------
E ------------------------------------------------------------------------------------------

E ------------------------------------------------------------------------------------------
H 17--12------17--12------17-12----15--12------19--12------15-12----------------------------
G --------12----------12--------12---------13----------13--------13-------------------------
D ------------------------------------------------------------------------------------------
A ------------------------------------------------------------------------------------------
E ------------------------------------------------------------------------------------------

E ------------------------------------------------------------------------------------------
H 15--10------15--10------15-10----15--10------15--10------15-10----------------------------
G --------11----------11--------11---------11----------11--------11-------------------------
D ------------------------------------------------------------------------------------------
A ------------------------------------------------------------------------------------------
E ------------------------------------------------------------------------------------------

E ------------------------------------------------------------------------------------------
H 15--10------15--10------15-10----15--10------15--10------15-10----------------------------
G --------10----------10--------10---------10----------10--------10-------------------------
D ------------------------------------------------------------------------------------------
A ------------------------------------------------------------------------------------------
E ------------------------------------------------------------------------------------------

E ------------------------------------------------------------------------------------------
H 15--14------17--14------15-14----17--14------15--14------17-------------------------------
G --------14----------14--------14---------14----------14------14---------------------------
D ------------------------------------------------------------------------------------------
A ------------------------------------------------------------------------------------------
E ------------------------------------------------------------------------------------------

accept still rulez....
have fun...
-----------------------------------------------------------------------------------------------