Stop Censorship
 
 

 
 1-9 a b c d e f g h i j k l m n o p q r s t u v w x y z
   Acid Bath - 13 Fingers Tab    

"13 Fingers" by Acid Bath.

From the Album "Paegan Terrorism Tactics".

Tabbed by Dale

Tuning:-all strings down a full step,and drop D to C.

eg(CGCFAD)

Heavy dist throughout.

Riff 1.

D|----------------------------------------------------|
A|----------------------------------------------------|
F|----------------------------------------------------|
C|----------------------------------------------------|
G|-----2--223222-222sl-6-6-----2--223222-222sl-6-6----|
C|-0-h-2--223222-222sl-6-6-0-h-2--223222-222sl-6-6----|

Riff 2.

D|----------------------------------------------------|
A|----------------------------------------------------|
F|----------------------------------------------------|
C|----------------------------------------------------|
G|-3sl5-55-5sl3-33-3sl5-6-2--3sl5-55-5sl3-33-3sl5-6-2-|
C|-3sl5-55-5sl3-33-3sl5-6-2--3sl5-55-5sl3-33-3sl5-6-2-|

Riff 3.

D|---------------------------------------|
A|---------------------------------------|
F|---------------------------------------|
C|---------------------------------------|
G|-3-3-4-4-0--7-6-5----3-3-4-4-0--7-6-5--|
C|-3-3-4-4-0--7-6-5----3-3-4-4-0--7-6-5--|

Riff 4.

D|--------------h-h-h-h------------------h-h-h-h------|
A|----------------------------------------------------|
F|------------------5------------------------5--------|
C|----------------5---5--------------------5---5------|
G|-3-3-3-7-7-6--5-----------3-3-3-7-7-6--5------------|
C|-3-3-3-7-7-6--------------3-3-3-7-7-6---------------|

Riff 5.

D|------------------------------------------|
A|------------------------------------------|
F|------------------------------------------|
C|------------------------------------------|
G|-5--5--6--3--3--6--5-----5--5--6--6--6--6-|
C|-5--5--6--3--3--6--5-----5--5--6--6--6--6-|

The rest of this song is made up of these riffs, some times
with variations in speed, but its easy to pick up.
dax is the best