Stop Censorship
 
 

 
 1-9 a b c d e f g h i j k l m n o p q r s t u v w x y z
   Acid Bath - Cassie Eats Cockroaches Tab    

"Cassie Eats Cockroaches" by Acid Bath.

From the Album "When the Kite String Pops".

Tabbed by Dale
Tuning:-all strings down a full steps, and drop C to B.

eg(BFBEGC)

This song sound simple, but is actually a bitch to master.
Some of the riffs towards the end a not perfect, but sound
ok. The last riff is missing, as i cannot get it right.

W.Heavy dist

Intro. (with samples from A Clockwork orange)

C|------------------------------------------------------------------|
G|------------------------------------------------------------------|
E|------------------------------------------------------------------|
B|------------------------------------------------------------------|
F|------------------------------------------------------------------|
B|-0-0-3P0--0-0-3P0--0-0-3P0-2b4r2--0-0-3P0--0-0-3P0--0-0-3P0-2b4r2-|

Riff 1.

C|------------------------------------------------------------------|
G|------------------------------------------------------------------|
E|------------------------------------------------------------------|
B|------------------------------------------------------------------|
F|----------------------------6-5-----------------------------------|
B|-0-0-3P0--0-0-3P0--0-0-3P0--6-5--0-0-3P0--0-0-3P0--0-0-3P0--2b4r2-|

Riff 2.

C|---------------------------------------------------------------|
G|---------------------------------------------------------------|
E|---------------------------------------------------------------|
B|---------------------------------------------------------------|
F|----------------------------6-5--------------------------------|
B|-0-0-333--0-0-333--0-0-333--6-5--0-0-333--0-0-333--0-0-2-2-2---|


Riff 3. (with samples)

C|----------------------------------------------------|
G|----------------------------------------------------|
E|----------------------------------------------------|
B|----------------------------------------------------|
F|-3--3-3--5--3-3--6-5--------3--3-3--5--3-3--6-5-----|
B|-3--3-3--5--3-3--6-5--------3--3-3--5--3-3--6-5-----|

Riff 4.

C|----------------------------------------------------|
G|----------------------------------------------------|
E|----------------------------------------------------|
B|----------------------------------------------------|
F|-444444-----4444444-----444444-----444444-----------|
B|---------5-----------5----------5----------5--------|





Riff 5.

C|----------------------------------------|
G|----------------------------------------|
E|----------------------------------------|
B|----------------------------------------|
F|-2---------2-3-2-0---1---------1-2-1-0--|
B|-2--0-0-0--2-3-2-0---1--0-0-0--1-2-1-0--|


Riff 6.

C|---------------------------|
G|---------------------------|
E|---------------------------|
B|---------------------------|
F|---------------------------|
B|-2-2-2-2-0-0--2-2-2-2-0-0--|

Riff 7.

C|--------------------------------------------|
G|--------------------------------------------|
E|--------------------------------------------|
B|--------------------------------------------|
F|-2--2-3-2---1--1-1-1---2--2-3-2---1--1-1-1--|
B|-2--2-3-2---1--1-1-1---2--2-3-2---1--1-1-1--|

Riff 8.

C|------------------------------------|
G|------------------------------------|
E|------------------------------------|
B|------------------------------------|
F|------------------------------------|
B|-3-3-3-2---0-0-0---3-3-3-2---0-0-0--|

Riff 9.(played with riff 5)

C|--------------------------------------------|
G|--------------------------------------------|
E|--------------------------------------------|
B|--------------------------------------------|
F|-0--0-0-0---0--0-0-0---0--0-0-0---0--0-0-0--|
B|-0--0-0-0---0--0-0-0---0--0-0-0---0--0-0-0--|

Acid bath there god of metal