Stop Censorship
 
 

 
 1-9 a b c d e f g h i j k l m n o p q r s t u v w x y z
   Acid Bath - Dr. Seuss Is Dead Tab    

Band: Acid Bath
Album: When The Kite String Pops
Song: Dr. Seuss Is Dead

Copyright © Rotten Records 1994

Transcribed by: Herbmeister420
Email: Herbmeister420@bandhunt.com

.- palm mute
/- slide up
- slide down
p- pull off
b- bend

I typed this on 4/20!
Just thought I’d tell you that.

tuning CGCFAD

Intro
|-------------|-------------------------------------------------------
|-------------|-------------------------------------------------------
|-------------|-------------------------------------------------------
|-3p2-2--2--2-|--3--5-6-2---3--5-6-2---3--5-6-2---3--5-6-7---8--10-11-
|-3p2-2--2--2-|--3--5-6-2---3--5-6-2---3--5-6-2---3--5-6-7---8--10-11-
|-3p2-2--2--2-|--3--5-6-2---3--5-6-2---3--5-6-2---3--5-6-7---8--10-11-
. . . . . . . . . .

----------------------------------------------
----------------------------------------------
----------------------------------------------
-7---8--10-11-3--5-6-2---3--5-6--3h2-2--2--2--
-7---8--10-11-3--5-6-2---3--5-6--3h2-2--2--2--
-7---8--10-11-3--5-6-2---3--5-6--3h2-2--2--2--
. . . . . .

-----------------------------------------------------------------
-----------------------------------------------------------------
-----------------------------------------------------------------
-----------------------------------------------------------------
-9—--5—--/7—--3—-2--------------9—--5—--/7—--3—-2------------
-9—--5—--/7—--3—-2---2/---12----9—--5—--/7—--3—-2---2/---12--

-----------------------------------------------------------------|
-----------------------------------------------------------------|
-----------------------------------------------------------------|
-----------------------------------------------------------------|
-9—--5—--/7—--3—-2--------------9—--5—--/7—--3—-2------------|
-9—--5—--/7—--3—-2---2/---12----9—--5—--/7—--3—-2---2/---12--|

verse 4x’s
|---------------------------------------|
|---------------------------------------|
|---------------------------------------|
|-3p-2-2-2--3p-2-2-2--------------------|
|-3p-2-2-2--3p-2-2-2--------------------|
|-3p-2-2-2--3p-2-2-2--9—--5—--/7—--3--|
. . . .
next part is the same riff but played a little faster

Chorus 4x’s 4x’s
|------------------------------|--------------------------------------|
|------------------------------|--------------------------------------|
|------------------------------|--------------------------------------|
|------------------------------|--------------------------------------|
|-3p2-2-2--3p2-2-2-------------|-3p2-2-2--3p2-2-2---------------------|
|-3p2-2-2--3p2-2-2-9955/7733-|-3p2-2-2--3p2-2-2-99995555/77773333-|
. . . . .. .. .. .. . . . . .... .... .... ....

now repeat the whole thing again except with the first section of the intro.

Outro I’m not sure how many times he plays this riff.
|--------------------------------|
|--------------------------------|
|--------------------------------|
|-3p2-22-5p2-22-4p2-22--66666666-|
|-3p2-22-5p2-22-4p2-22--66666666-|
|-3p2-22-5p2-22-4p2-22--66666666-|
.. .. ..
there is also a small solo I think, I can’t remember because I’m too high.
Peace out!