Stop Censorship
 
 

 
 1-9 a b c d e f g h i j k l m n o p q r s t u v w x y z
   Acid Bath - New Death Sensation Tab    

Band: Acid Bath
Song: New Death Sensation
Tabbed by: start_the_dysfunction@yahoo.com

This song is awesome…played acoustic in standard tuning…this is just the first song, until about 1:45 on the track…the rest is to come.


E----------------------------------------------------------------------
B----------------------------------------------------------------------
G----------------------------------------------------------------------
D-1---1-1h3---3-3---3-3---3-1---1-1h3---3-3---3-3---3-1---1------------
A---4-------1-----1-----1-----4-------1-----1-----1-----4--------------
E----------------------------------------------------------------------

E----------------------------------------------------------------------
B----------------------------------------------------------------------
G---------------------------------------------------3---3-3------------
D-4---4-4---4-4---4-3---1-1h3---3-3---3-3---3-1---1--------------------
A---1-----1-----1-----1-------1-----1-----1-----4-----1----------------
E----------------------------------------------------------------------

E----------------------------------------------------------------------
B----------------------------------------------------------------------
G---3-3---3-4----------------------------------------------------------
D-------------3-2---2-2---2-2---2-1---1-1h3---3-3---3-3----------------
A-1-----1---------3-----3-----3-----4-------1-----1--------------------
E----------------------------------------------------------------------

E----------------------------------------------------------------------
B--------------------------------------1-----------1-------------------
G-----------3---3-3---3-3---3-4----------0-----------------------------
D---3-1---1------------------------3-2-----2-----2---------------------
A-1-----4-----1-----1-----1-----1------------3-3-----------------------
E----------------------------------------------------------------------

E----------------------------------------------------------------------
B----------------------------------------------------------------------
G----------------------------------------------------------------------
D-1---1-1h3---3-3---3-3---3-1---1-1h3---3-3---3-3---3-1----------------
A---4-------1-----1-----1-----4-------1-----1-----1-----4--------------
E----------------------------------------------------------------------

E----------------------------------------------------------------------
B----------------------------------------------------------------------
G----------------------------------------------------------------------
D-1-4---4-4---4-4---4-3---1-1h3---3-3---3-3----------------------------
A-----1-----1-----1-----1-------1-----1--------------------------------
E----------------------------------------------------------------------

E----------------------------------------------------------------------
B-------------------------------------1-----------1--------------------
G-----------3---3-3---3-3---3-4---------0------------------------------
D---3-1---1-----------------------3-2-----2-----2----------------------
A-1-----4-----1-----1-----1-----1-----------3-3------------------------
E----------------------------------------------------------------------

E----------------------------------------------------------------------
B----------------------------------------------------------------------
G----------------------------------------------------------------------
D-1---1-1h3---3-3---3-3---3-1---1-1h3----------------------------------
A---4-------1-----1-----1-----4-------1--------------------------------
E----------------------------------------------------------------------