Stop Censorship
 
 

 
 1-9 a b c d e f g h i j k l m n o p q r s t u v w x y z
   Acid Bath - Pagan Love Song Tab    

Band: Acid Bath
Song: Pagan Love Song

Tuning: dgcfad

h-hammer on
b-bend
/-slide up
()-pinch harmonic
.-palm mute
Riff 1
|--------------------------------------------------------|
|--------------------------------------------------------|
|--------------------------------------------------------|
|--------------------------------------------------------|
|--------3--5-----------------------3--5-----------------|
|--3--5--------3-4-5--3-4-5----3--5--------3-4-5--3-4-5--|
sometimes they play a slight variation by sliding to the eleventh fret and bending it

Riff 2
|-----------------------------------------------------------|
|-----------------------------------------------------------|
|-----------------------------------------------------------|
|-----------------------------------------------------------|
|--5/7-7-7-7--7-7-7-7--7-7/8-8--5/7-7-7-7--7-7-7-7--7-7/8-8-|
|--3/5-5-5-5--5-5-5-5--5-5/6-6--3/5-5-5-5--5-5-5-5--5-5/6-6-|

Riff 3
|--------------------------------------------------------|
|--------------------------------------------------------|
|--------------------------------------------------------|
|--------------------------------------------------------|
|-------3--5----------------5/7-7-7-7--7-7-7-7--7-7/8-8--|
|--3--5-------3-4-5--3-4-5--3/5-5-5-5--5-5-5-5--5-5/6-6--|

Riff 4
|--------------------------------------------------------------|
|--------------------------------------------------------------|
|--------------------------------------------------------------|
|--------------------------------------------------------------|
|-5/7-7-7-87-7-7-5/7-7-8-7-7-7-5/7-7-7-87-7-7-5/7-7-8-7-7-7--|
|-3/5-5-5-65-5-5-3/5-5-6-5-5-5-3/5-5-5-65-5-5-3/5-5-6-5-5-5--|

Riff 5
|------------------------------------------------------|
|------------------------------------------------------|
|------------------------------------------------------|
|------------------------------------------------------|
|--5/7-7-7-7--7-7-7--7-7-7--5/7-7-7-7--7-7-7--7-10-10--|
|--3/5-5-5-5--5-5-5--5-5-5--3/5-5-5-5--5-5-5--5--8--8--|
play it again without going to the 8th fret

Fill
|------------------------------------------------|
|------------------------------------------------|
|------------------------------------------------|
|--3--3-3--3--3-3-3--3-3--5--5-5--5--5-5-5--5-5--|
|--3--3-3--3--3-3-3--3-3--5--5-5--5--5-5-5--5-5--|
|--1--1-1--1--1-1-1--1-1--3--3-3--3--3-3-3--3-3--|

now play riff 4 again followed by riff 5 into the solo
SOLO (Definitly not right but work with it)
|------------------------------------------------------------------
|--15b---15b--15b-15b-15b-15b---15b---15b--15b-15b-15b-------------
|-------------------------------------------------------------(12)-
|-------------------------------------------------------10-12------
|------------------------------------------------------------------
|------------------------------------------------------------------
. .

-----------------------------------------------------------------------
---------------------slight bend--------------------------------------
-------(12)-------10-[12-12-12-12-12-12}-10-10h12p10----10-10h12p10----
-10-12------10-12------------------------------------12-------------12-
-----------------------------------------------------------------------
-----------------------------------------------------------------------
. . . .

------------------------------------------------------------------------
----------------------------------------------------15b-15b-15b-15b-15b-
-10-10-10-10-12-12-12-12-10-10h12-12-12-10h12-12-12---------------------
------------------------------------------------------------------------
------------------------------------------------------------------------
------------------------------------------------------------------------

-------------------------------------------------------------|
-17-17b-17b-17b-17b-17b-17-----------------------------------|
-------------------------------------------------------------|
-----------------------------------10-12---------------------|
---------------------------10--12---------10-11-12--10-11-12-|
-------------------------------------------------------------|

Riff 6
|--------------------------------------------------------------|
|--------------------------------------------------------------|
|-------------------------------------------------------7-7-7--|
|--7-7-7-7-6-6-7-6-5-5-5-5-6-6-7-6-7-7-7-7-6-6-7-6-5-5/7-7-7---|
|--------------------------------------------------------------|
|--------------------------------------------------------------|

Riff 7
|-----------------------------------------------------------|
|-----------------------------------------------------------|
|-----------------------------------------------------------|
|-----------------------------------------------------------|
|--9--9--0-8--0-7--7--0-8--9--9--0-8--0-7-------------------|
|--7--7--0-6--0-5--5--0-6--7--7--0-6--0-5-5-5/-10b-10b-10b--|
. . . .