Stop Censorship
 
 

 
 1-9 a b c d e f g h i j k l m n o p q r s t u v w x y z
   Adams Gang - Bid Out Tab    

|----------------|---------------|----------------|-----------------------------|
|-------------10-|---------------|-------------10-|-----------------------8-P7--|
|-7-9-7----------|-7-9-7---------|-7-9-7----------|-57-797----57-7-H9-7---7-|
|-------9-11----|-------9-11-7-|-------9-11----|-57-797----57-7-H9-----7-|
|----------------|---------------|----------------|-----------------------------|
|----------------|---------------|----------------|-----------------------------|

|----------------------------|----------------------------|
|---------------------8-P7---|---------------------8-P7---|
|-57-797--57-7-H9-7---7--|-57-797--57-7-H9-7----7-|
|-57-797--57-7-H9-----7--|-57-797--57-7-H9------7-|
|----------------------------|----------------------------|
|----------------------------|----------------------------|



E ----------------------------------7---------------
B --6--x-x--6--x-x--6--x-x--6--x-x--6---------------
G --5-------5-------5-------5-------5---------------
D --------------------------------------------------
A --------------------------------------------------
E --------------------------------------------------


|-----10----------------|-------------------------------|
|-12----12-P10---------|-------------------------------|
|---------------11-9-7--|---7-9-(9)-7-(9-(9)-7-P9-7-----|
|-----------------------|-9--------------------------9--|
|-----------------------|-------------------------------|
|-----------------------|-------------------------------|