Stop Censorship
 
 

 
 1-9 a b c d e f g h i j k l m n o p q r s t u v w x y z
   Addictive Behavior - Shackles Tab    

Song:Shackles
Played by:Addictive Behavior
Tabbed By:Preston Stephens (presto14)
this song rocks and even though is its a little old, its still fun to play
e|--------------------------------------------------------------------------|
b|--------------------------------------------------------------------------|
g|----------------------------------repeat this until the chorus------------|
d|--------------------------------------------------------------------------|
a|-------2222222222222222---444444444---------11---66666666---77777777------|
e|-------0000000000000000---222222222---4-5-7-9----44444444---55555555------|

Chorus
e|-------------------------------------------------------
b|-------------------------------------------------------
g|-------------------------------------------------------
d|------------------------------6----6-------------------
a|------2-----2-----4----4------4----4----6---6---7---7--
e|------0-----0-----2----2----------------4---4---5---5--

you will have to listen to the song….I tried to make this really simple…..just listen to the song to figure out what goes where….its all mostly right