Stop Censorship
 
 

 
 1-9 a b c d e f g h i j k l m n o p q r s t u v w x y z
   Afi - God Called In Sick Today Tab    

-------------------------------------------------------------------------------
GOD CALLED IN SICK TODAY - AFI
-------------------------------------------------------------------------------
THIS IS NOT MY TAB. I JUST SUBMITTED IT.

By: PunxNOTdeaD101@hotmail.com

x - palm mute
...pm... - palm mute

Just follow the tab in order for the whole song

e|---------------------------------------------------------------------------|
B|---------------------------------------------------------------------------|
G|------3-----3------------2-----2------------2-----2-----------2-----2------|
D|--5-5---5-5---5-5----3-3---3-3---3-3----0-0---0-0---0-0----1-1--1-1---1-1-0|
A|---------------------------------------------------------------------------|
E|---------------------------------------------------------------------------|

e|---------------------------------------------------------------------------|
B|---------6-----------------------------------------------------------------|
G|-----3-----3------------2-----2------------2-3-2--------------2-----2------|
D|-5-5---5-----5-5----3-3---3-3---3-3----0-3-------3-0-0----1-1---1-1---1-1-0|
A|---------------------------------------------------------------------------|
E|---------------------------------------------------------------------------|

e|---------------------------------------------------------------------------|
B|---------------------------------------------------------------------------|
G|------3-----3------------2-----2------------2-----2-----------2-----2------|
D|--5-5---5-5---5-5----3-3---3-3---3-3----0-0---0-0---0-0----1-1--1-1---1-1-0|
A|---------------------------------------------------------------------------|
E|---------------------------------------------------------------------------|

e|---------------------------------------------------------------------------|
B|---------6-----------------------------------------------------------------|
G|-----3-----3------------2-----2------------2-3-2--------------2-----2------|
D|-5-5---5-----5-5----3-3---3-3---3-3----0-3-------3-0-0----1-1---1-1---1-1-0|
A|---------------------------------------------------------------------------|
E|---------------------------------------------------------------------------|

e|---------------------------------------------------------------------------|
B|---------------------------------------------------------------------------|
G|---------------------------------------------------------------------------|
D|--5-5-5-5-5-5-5-5--3-3-3-3-3-3-3-3--0-0-0-0-0-0-0-0--1-1-1-1-1-1-1-1-------|
A|--................................pm................................-------|
E|---------------------------------------------------------------------------|

e|--------------------------------------5-5-5-5-5-5-5----6-6-6-6-6-6---------|
B|--------------------------------------6-6-6-6-6-6-6----7-7-7-7-7-7---------|
G|--------------------------------------7-7-7-7-7-7-7----8-8-8-8-8-8---------|
D|--5-5-5-5-5-5-5-5--3-3-3-3-3-3-3-3----7-7-7-7-7-7-7----8-8-8-8-8-8---------|
A|--...............pm...............----5-5-5-5-5-5-5----6-6-6-6-6-6---------|
E|--------------------------------------5-5-5-5-5-5-5----6-6-6-6-6-6---------|

Not the exact # of strums...listen to the song to figure out how many times
e|------------------|--------------------------------------------------------|
B|------------------|--------------------------------------------------------|
G|------5-----------|------5-------8-----------------------------------------|
D|--8---5---5---3---|--8---5---5---8---5-------------------------------------|
A|--8---3---5---3---|--8---3---5---6---5-------------------------------------|
E|--6-------3---1---|--6-------3-------3-------------------------------------|


e|---------------------------------------------------------------------------|
B|---------------------------------------------------------------------------|
G|------3-----3------------2-----2------------2-----2-----------2-----2------|
D|--5-5---5-5---5-5----3-3---3-3---3-3----0-0---0-0---0-0----1-1--1-1---1-1-0|
A|--...................................pm....................................|
E|---------------------------------------------------------------------------|

e|---------------------------------------------------------------------------|
B|---------6-----------------------------------------------------------------|
G|-----3-----3------------2-----2------------2-3-2--------------2-----2------|
D|-5-5---5-----5-5----3-3---3-3---3-3----0-3-------3-0-0----1-1---1-1---1-1-0|
A|-..pm...-------.........pm..........--------------------........pm.........|
E|---------------------------------------------------------------------------|

e|--10xxxx---10--10-----8xxxx----8---8----5xxxx---5--5----6xxxx---6--6-------|
B|--11xxxx---11--11-----9xxxx----9---9----6xxxx---6--6----7xxxx---7--7-------|
G|--12xxxx---12--12----10xxxx---10--10----7xxxx---7--7----8xxxx---8--8-------|
D|--12xxxx---12--12----10xxxx---10--10----7xxxx---7--7----8xxxx---8--8-------|
A|--10xxxx---10--10-----8xxxx----8---8----5xxxx---5--5----6xxxx---6--6-------|
E|--10xxxx---10--10-----8xxxx----8---8----5xxxx---5--5----6xxxx---6--6-------|

e|--10xxxx---10--10-----8xxxx----8---8----5xxxx---5--5----6xxxx---6-6-6-6----|
B|--11xxxx---11--11-----9xxxx----9---9----6xxxx---6--6----7xxxx---7-7-7-7----|
G|--12xxxx---12--12----10xxxx---10--10----7xxxx---7--7----8xxxx---8-8-8-8----|
D|--12xxxx---12--12----10xxxx---10--10----7xxxx---7--7----8xxxx---8-8-6-6----|
A|--10xxxx---10--10-----8xxxx----8---8----5xxxx---5--5----6xxxx---6-6-6-6----|
E|--10xxxx---10--10-----8xxxx----8---8----5xxxx---5--5----6xxxx---6-6-6-6----|

--6-6-6-6-6-6-|e
--7-7-7-7-7-7-|B
--8-8-8-8-8-8-|G
--8-8-8-8-8-8-|D
--6-6-6-6-6-6-|A
--6-6-6-6-6-6-|E
Not the exact # of strums
e|-----------------|-----------------|-----------------|---------------------|
B|-----------------|-----------------|-----------------|---------------------|
G|------5----------|------5-------8--|------5----------|------5-------8------|
D|--8---5---5---3--|--8---5---5---8--|--8---5---5---3--|--8---5---5---8------|
A|--8---3---5---3--|--8---3---5---6--|--8---3---5---3--|--8---3---5---6------|
E|--6-------3---1--|--6-------3------|--6-------3---1--|--6-------3----------|

Not the exact # of strums
e|--10---8--5--6--------------------|----------------------------------------|
B|--10---8--5--6--------------------|----------------------------------------|
G|--11---9--6--7--------------------|-------------3-------------4-4-4-4-4-4-4|
D|--12--10--7--8--play-this-4-times-|--5---3-3-3--3---3-3-3--5--5-5-5-5-5-5-5|
A|--12--10--7--8--------------------|--5---3-3-3--1---3-3-3--5--5-5-5-5-5-5-5|
E|--10---8--5--6--------------------|--3---1-1-1------1-1-1--3--3-3-3-3-3-3-3|

----------------------|e
----------------------|B
--7x-7x-7x-7x-7-7-7-7-|G
--8x-8x-8x-8x-8-8-8-8-|D
--8x-8x-8x-8x-8-8-8-8-|A
--6x-6x-6x-6x-6-6-6-6-|E
Not the exact # of strums
e|-----------------|-----------------|-----------------|---------------------|
B|-----------------|-----------------|-----------------|---------------------|
G|------5----------|------5-------8--|------5----------|------5-------8------|
D|--8---5---5---3--|--8---5---5---8--|--8---5---5---3--|--8---5---5---8------|
A|--8---3---5---3--|--8---3---5---6--|--8---3---5---3--|--8---3---5---6------|
E|--6-------3---1--|--6-------3------|--6-------3---1--|--6-------3----------|

end with...
e|---------------------------------------------------------------------------|
B|---------------------------------------------------------------------------|
G|--3------------------------------------------------------------------------|
D|--3----3-3-3-3---5---------------------------------------------------------|
A|--1----3-3-3-3---5---------------------------------------------------------|
E|-------1-1-1-1---3---------------------------------------------------------|

I tabbed this song out because i didnt like how all the others were tabbed. If
you just want to play it w/ power chords like most of the tabs for this song...
then just play the power chord part of the chords. If you have any corrections,
dont bother sending them to me because this is how i play it and it sounds good
to me. Although its probably not exactly how Jade plays it.