Stop Censorship
 
 

 
 1-9 a b c d e f g h i j k l m n o p q r s t u v w x y z
   Afi - Love Is A Many Splendored Thing Tab    

-------------------------------------------------------------------------------
LOVE IS A MANY SPLENDOR THING - AFI
-------------------------------------------------------------------------------

BY VINCE retreat__@hotmail.com

intro: (4X)
e|---------------|
B|---------------|
G|--9-9-9-----7--|
D|--9-9-9-5-7-7--|
A|--7-7-7-5-7-5--|
E|--------3-5----|

verse:
e|--------------------------------------------------|
B|--------------------------------------------------|
G|--9-9-9-----7-9-9-9-----7-9-9-9-----7-9-9-9-----7-|
D|--9-9-9-5-7-7-9-9-9-5-7-7-9-9-9-5-7-7-9-9-9-5-7-7-|
A|--7-7-7-5-7-5-7-7-7-5-7-5-7-7-7-5-7-5-7-7-7-5-7-5-|
E|--------3-5---------3-5---------3-5---------3-5---|

chorus: (I hate you...)
e|-------|--------------------------------------------|
B|-------|--------------------------------------------|
G|-4-4-4-|---7-4--4-4-4---7-4--4-4-4---7-4--4-4-4---7-|
D|-4-4-4-|-5-7-4--4-4-4-5-7-4--4-4-4-5-7-4--4-4-4-5-7-|
A|-2-2-2-|-5-5-2--2-2-2-5-5-2--2-2-2-5-5-2--2-2-2-5-5-|
E|-------|-3------------3------------3------------3---|

-verse
-chorus + E

E=
e|---|
B|---|
G|---| (let ring)
D|-2-|
A|-2-|
E|-0-|

bridge: (4X)
|----P.M.---| |---P.M.----|
e|--------------------------------------------------------------|
B|--------------------------------------------------------------|
G|-----------------------6-6-6-6------------------------6-6-6---|
D|-2--2-2-2-2-2-2--5-5-5-6-6-6-6--2--2-2-2-2-2-2--5-5-5-6-6-6-7-|
A|-2--2-2-2-2-2-2--5-5-5-4-4-4-4--2--2-2-2-2-2-2--5-5-5-4-4-4-7-|
E|-0--0-0-0-0-0-0--3-3-3----------0--0-0-0-0-0-0--3-3-3-------5-|

-verse
-chorus (2X)
-intro (1X)

that`s it ! E-mail me for corrections or comments...

-------------------------------------------------------------------------------