Stop Censorship
 
 

 
 1-9 a b c d e f g h i j k l m n o p q r s t u v w x y z
   Afi - Self Pity Tab    

intro/verse:
e|-------------------------------------------|
B|-------------------------------------------|
G|-11-1111111111----------9-999999-6-666666--|
D|-11-1111111111-7-777777-9-999999-6-666666--| (4 X)
A|--9--9-9-9-9-9-7-777777-7-777777-4-444444--|
E|---------------5-555555--------------------|

pre-chorus:
e|--------------------|
B|--------------------|
G|-11---14------------|
D|-11---14---14---11--| (2 X)
A|--9---12---14---11--|
E|-----------12----9--|

chorus:
e|----------------------------------------------------|
B|----------------------------------------------------|
G|-----11-11-11------11-11-11------11-11-11-12-12-12--|
D|-14--11-11-11--14--11-11-11--14--11-11-11-12-12-12--| (1 X)
A|-14---9--9--9--14---9--9--9--14---9--9--9-10-10-10--|
E|-12------------12------------12---------------------|