Stop Censorship
 
 

 
 1-9 a b c d e f g h i j k l m n o p q r s t u v w x y z
   Afi - Silver And Cold Tab    

silver and cold by Afi
piano intro Arranged for guitar

tune a half step flat(Eb Ab Db Gb Bb eb)

eb----10-14----10-14----10-14----10-17-----------
Bb-12--------12-------12-------12--------14-15-17
Gb-----------------------------------------------
Db-----------------------------------------------
Ab-14--------12-------10-------14--------12------
Eb-----------------------------------------------



eb--17-15-14----12-14-15------------------------
Bb----------------------------------------------
Gb----------------------------------------------
Db----------------------------------------------
Ab----------------------------------------------
Eb--15----------12------------------------------