Stop Censorship
 
 

 
 1-9 a b c d e f g h i j k l m n o p q r s t u v w x y z
   Afi - Third Season Tab    


AFI - Third Season

Intro - go up the volume!
e|-------|
B|-------|
G|-------|
D|---0---|
A|---0---|
E|---0---|

e|---------------------------------------------------------------------------|
B|---------------------------------------------------------------------------|
G|---7-----------8-----7-----------------------------------------------------|
D|---7-----8-----8-----7-----------------------------------------------------|
A|---5-----8-----6-----5-----------------------------------------------------|
E|---------6-----------------------------------------------------------------|

e|---------------------------------------------------------------------------|
B|---------------------------------------------------------------------------|
G|---777777--------888888--77777777------------------------------------------|
D|---777777-888888-888888--77777777------------------------------------------|
A|---555555-888888-666666--55555555------------------------------------------|
E|----------666666-----------------------------------------------------------|
PM.............................................
Bass on the 1rst part of the verse

2nd part of the verse:
|-----10----10---------7----7-----------9----9----5---5--5--5---5--5--5------|
|---6-----6-----6----6----6----6------6---6---6------------------------------|
|-7-----------------7---------------7----------------------------------------|
|----------------------------------------------------------------------------|
|----------------------------------------------------------------------------|
|----------------------------------------------------------------------------|


|-----10-----10---------6---6---6---6---6---6---6---6------------------------|
|---6-------6-------6---6---6---6---6---6---6---6---6------------------------|
|-7-------7-------7-----7---7---7---7---7---7---7---7---888888-777777--------|
|-------------------------------------------------------888888-777777--------|
|-------------------------------------------------------666666-555555--------|
|----------------------------------------------------------------------------|
PM.............
chorus:
e|---------------------------------------------------------------------------|
B|---------------------------------------------------------------------------|
G|---777777--------888888--777777--------------------------------------------|
D|---777777-888888-888888--777777--------------------------------------------|
A|---555555-888888-666666--555555--------------------------------------------|
E|----------666666-----------------------------------------------------------|2x

1st part of the verse

2nd part of the verse

Chorus 2x

"Gonna take you by suprise..."
e|---------------------------------------------------------------------------|
B|---------------------------------------------------------------------------|
G|---777777-101010101010-1212121212-8777777----------------------------------|
D|---777777-101010101010-1212121212-8777777----------------------------------|
A|---555555--8-8-8-8-8-8-1010101010-6555555----------------------------------|
E|---------------------------------------------------------------------------|

e|---------------------------------------------------------------------------|
B|---------------------------------------------------------------------------|
G|---8777777-101010101010-777777---------------------------------------------|
D|---8777777-101010101010-777777---------------------------------------------|
A|---6555555--8-8-8-8-8-8-555555---------------------------------------------|
E|---------------------------------------------------------------------------|

Chorus x 2

then:
e|---------------------------------------------------------------------------|
B|---------------------------------------------------------------------------|
G|---77777710----------------------------------------------------------------|
D|---77777710888888----------------------------------------------------------|
A|---555555-9888888----------------------------------------------------------|
E|-----------666666----------------------------------------------------------|

last part:
e|---------------------------------------------------------------------------|
B|---------------------------------------------------------------------------|
G|---7-888888-7~-------------------------------------------------------------|
D|---7-888888-7~-------------------------------------------------------------|
A|---5-666666-5~-------------------------------------------------------------|
E|---------------------------------------------------------------------------|