Stop Censorship
 
 

 
 1-9 a b c d e f g h i j k l m n o p q r s t u v w x y z
   Against All Authority - 24 Hour Roadside Resistance Tab    

Band- AAA
Song- 24 Hour Roadside Resistance
Tabed by- A.J. Ryan

I am pretty sure that this tab is 100% right
Intro- "We`re UNdar Attack!"
e ------------------------------
B ------------------------------
G ---------7777-----------------
D -77-7-55-7777--x3--77777777---
A -77-7-55-5555------77777777---
E -55-5-33-----------55555555---

Verse-
e -------------------------------------------------
B -------------------------------------------------
G -44--7-------44--7------44--------555------------
D -44--7 x10---44--7 x10--44--5-----555--5/7-7----- x2
A -22--5-------22--5------22--5 x6--333--5/7-7x 9--
E ----------------------------3----------3/5-5-----

Ska Part-
e -2222---3333---2222----------------
B -2222---3333---2222----------------
G -3333---4444---3333---5555--4444---
D -4444---5555---4444---5555--4444---x2
A -4444---5555---4444---3333--2222---
E -2222---3333---2222----------------

Then Play Intro (2x)
Then play verse
Then play ska Part
Then play Verse

Outro-
e -----------------------------------------
B ------------------------------------------
G ------------5555-4-2----------------------
D -4444--5-4--5555-4-2----x4------------44--
A -4444--5-4--3333-2-0--------- end on--44--
E -2222--3-2----------------------------22--