Stop Censorship
 
 

 
 1-9 a b c d e f g h i j k l m n o p q r s t u v w x y z
   Against All Authority - Centerfold Tab    

#----------------------------------PLEASE NOTE--------------------------------#
#This file is the author`s own work and represents their interpretation of the#
#song. You may only use this file for private study, scholarship, or research.#
#-----------------------------------------------------------------------------#
#-- File created with Instab - http:/www.pconline.com/~smcarey/instab.html --#
#-----------------------------------------------------------------------------#

Author/Artist: Against All Authority
Title: Centerfold
Album: Destroy What Destroys You
Transcribed by: Austin
|------4------|
|------4------|
|------5------|
|------6------|
|------6------|
|------4------|
Intro

|--x-4-x-4-x-4-x-4-x-2-x-2-x-4-x-4--|
|--x-4-x-4-x-4-x-4-x-2-x-2-x-4-x-4--|
|--x-5-x-5-x-5-x-5-x-3-x-3-x-5-x-5--|
|--x-6-x-6-x-6-x-6-x-4-x-4-x-6-x-6--|
|--x-6-x-6-x-6-x-6-x-4-x-4-x-6-x-6--|
|--x-4-x-4-x-4-x-4-x-2-x-2-x-4-x-4--|
Verse x6 on the upbeat

|------------------------------------|
|------------------------------------|
|------------------6-6-6-6--8-8-8-8--|
|--6--6-6-6-6-6-6--6-6-6-6--8-8-8-8--|
|--6--6-6-6-6-6-6--4-4-4-4--6-6-6-6--|
|--4--4-4-4-4-4-4--------------------|
Pre-chorus x2

|--------------------------------|
|--------------------------------|
|---------6--6-6---------6--6-6--|
|--6-6-6--6--6-6--4-4-4--6--6-6--|
|--6-6-6--4--4-4--4-4-4--4--4-4--|
|--4-4-4----------2-2-2----------|
Chorus x4

|--x-4-x-4-x-4-x-4-x-2-x-2-x-4-x-4--|
|--x-4-x-4-x-4-x-4-x-2-x-2-x-4-x-4--|
|--x-5-x-5-x-5-x-5-x-3-x-3-x-5-x-5--|
|--x-6-x-6-x-6-x-6-x-4-x-4-x-6-x-6--|
|--x-6-x-6-x-6-x-6-x-4-x-4-x-6-x-6--|
|--x-4-x-4-x-4-x-4-x-2-x-2-x-4-x-4--|
Verse x4

|------------------------------------|
|------------------------------------|
|------------------6-6-6-6--8-8-8-8--|
|--6--6-6-6-6-6-6--6-6-6-6--8-8-8-8--|
|--6--6-6-6-6-6-6--4-4-4-4--6-6-6-6--|
|--4--4-4-4-4-4-4--------------------|
Pre-chorus x2

|--------------------------------|
|--------------------------------|
|---------6--6-6---------6--6-6--|
|--6-6-6--6--6-6--4-4-4--6--6-6--|
|--6-6-6--4--4-4--4-4-4--4--4-4--|
|--4-4-4----------2-2-2----------|
Chorus x4

|--------------------------------|
|--------------------------------|
|---------6--6-6---------6--6-6--|
|--6-6-6--6--6-6--4-4-4--6--6-6--|
|--6-6-6--4--4-4--4-4-4--4--4-4--|
|--4-4-4----------2-2-2----------|
Post-chorus x4

|--x-4-x-4-x-4-x-4-x-2-x-2-x-4-x-4--|
|--x-4-x-4-x-4-x-4-x-2-x-2-x-4-x-4--|
|--x-5-x-5-x-5-x-5-x-3-x-3-x-5-x-5--|
|--x-6-x-6-x-6-x-6-x-4-x-4-x-6-x-6--|
|--x-6-x-6-x-6-x-6-x-4-x-4-x-6-x-6--|
|--x-4-x-4-x-4-x-4-x-2-x-2-x-4-x-4--|
Verse x4

|------------------------------------|
|------------------------------------|
|------------------6-6-6-6--8-8-8-8--|
|--6--6-6-6-6-6-6--6-6-6-6--8-8-8-8--|
|--6--6-6-6-6-6-6--4-4-4-4--6-6-6-6--|
|--4--4-4-4-4-4-4--------------------|
Pre-chorus x2

|--------------------------------|
|--------------------------------|
|---------6--6-6---------6--6-6--|
|--6-6-6--6--6-6--4-4-4--6--6-6--|
|--6-6-6--4--4-4--4-4-4--4--4-4--|
|--4-4-4----------2-2-2----------|
Chorus x4

|--------------------------------|
|--------------------------------|
|---------6--6-6---------6--6-6--|
|--6-6-6--6--6-6--4-4-4--6--6-6--|
|--6-6-6--4--4-4--4-4-4--4--4-4--|
|--4-4-4----------2-2-2----------|
Post-chorus x5

|------------------|
|------------------|
|-----------6------|
|--6----6---6-6-6--|
|--6----6---4-6-6--|
|--4----4-----4-4--|
Outro