Stop Censorship
 
 

 
 1-9 a b c d e f g h i j k l m n o p q r s t u v w x y z
   Against All Authority - Just An Obstruction Tab    

e|--------------------------------|
B|--------------------------------|
G|-------------------------44-666-|
D|--6-x-xxxx---5/4/7xxxxx--44-666-|
A|--6-x-xxxx---5/4/7xxxxx--22-444-|
E|--4-x-xxxx---3/2/5xxxxx---------|

e|-----------------------------|
B|-----------------------------|
G|----------------------44-666-|
D|-666666666-5/4/77777--44-666-|
A|-666666666-5/4/77777--22-444-|
E|-444444444-3/2/55555---------|

e|-------------------------------------------------------------------------------|
B|-------------------------------------------------------------------------------|
G|----------------------------------99999999/8/99999999-6-444444-----------------|
D|-666666666-5/77777--9999999999999-99999999/8/99999999-6-444444-7/6/77777-9-9-9-|
A|-666666666-5/77777--9999999999999-77777777/6/77777777-4-222222-7/6/77777-9-9-9-|
E|-444444444-3/55555--7777777777777------------------------------5/4/55555-7-7-7-|
^^^^^^^^^^^^^^^^
here`s some land not fit for us to live on not sure about this part
e|---------------------|
B|---------------------|
G|-9x9x9x9x9x----------|
D|-9x9x9x9x9x9x9x9x9x9-|
A|-7x7x7x7x7x9x9x9x9x9-|
E|-----------7x7x7x7x7-|

e|---------------------------------------|
B|---------------------------------------|
G|-9-9-9-9-9-9-9-9-9-9-9-9-9-9-9-9-9-9-9-|
D|-9-9-9-9-9-9-9-9-9-9-9-9-9-9-9-9-9-9-9-|
A|-7-7-7-7-7-7-7-7-7-7-7-7-7-7-7-7-7-7-7-|
E|---------------------------------------|

bub bye