Stop Censorship
 
 

 
 1-9 a b c d e f g h i j k l m n o p q r s t u v w x y z
   Against All Authority - Lifestyle Of Rebellion Tab    

INRO/VERSE:4X
-----------------------------------------------------------------------|
-----------------------------------------------------------------------|
-7777777-----------------------------77777-----------------------------|
-7777777-9999-7777-555555-77777----------------------------------------|
-5555555-9999-7777-555555-55555----------------------------------------|
--------------7777-5555-333333-----------------------------------------|

CHOURS:2X
--------------------------|----------------------------------------87--|
--------------------------|-----------------------9^9^9^9^9^9^--9^-888-|
-7-----7--------------777-|--------------------------------------------|
-7-7-5-7--777-555-777-777-|-777777777777-------------------------------|
-5-7-5-5--777-555-777-555-|-777777777777-------------------------------|
---5-3----555-333-555-----|-555555555555-------------------------------|

BRIDGE: FAST DISTORTED
----------3-3-3-3-3----5-5-5-5-5---------------------------------------|
-7-7-7-7--3-3-3-3-3----5-5-5-5-5---------------------------------------|
-7-7-7-7--4-4-4-4-4----6-6-6-6-6---------------------------------------|
-X-X-X-X--5-5-5-5-5----7-7-7-7-7---------------------------------------|
-5-5-5-5--5-5-5-5-5----7-7-7-7-7---------------------------------------|
----------3-3-3-3-3----5-5-5-5-5---------------------------------------|