Stop Censorship
 
 

 
 1-9 a b c d e f g h i j k l m n o p q r s t u v w x y z
   Against All Authority - No Reason Tab    

Here`s the tab for No Reason by Against All Authority. Enjoy!

Intro
e|--------------------------------------------------------------------|
B|--------------------------------------------------------------------|
G|--------------------------------------------------------------------|
D|--------------------------------------------------------------------|
A|----4^5-55----------------------------------------------------------|
E|--------------------------------------------------------------------|

Verse
e|-------5------------------------------------------------------------|
B|---7---5------------------------------------------------------------|
G|---7---6------------------------------------------------------------|
D|---7---7------------------------------------------------------------|
A|---5---7------------------------------------------------------------|
E|-------5------------------------------------------------------------|

Pre-chorus Chorus is the same
e|--------------------------------------------------------------------|
B|--------------------------------------------------------------------|
G|----7---------------------------------------------------------------|
D|----7--7--5---------------------------------------------------------|
A|----5--7--5---------------------------------------------------------|
E|-------5--3---------------------------------------------------------|