Stop Censorship
 
 

 
 1-9 a b c d e f g h i j k l m n o p q r s t u v w x y z
   Align - Weigh Me Down Tab    

----------------------------------------------------------------------------
Weigh Me Down - Align
Tabbed By Justin Christen
n3xus@devil.com
----------------------------------------------------------------------------
|Intro/Verse/Chorus|
|All notes are palm muted in Intro and Verse and regular full notes are played in the chorus|

e|--------------------------------------
B|--------------------------------------
G|--------------------------------------
D|0-0-0-0-2-2-2-2-3-3-3-3-4-4-5-5-6-6-
A|0-0-0-0-2-2-2-2-3-3-3-3-4-4-5-5-6-6-
D|0-0-0-0-2-2-2-2-3-3-3-3-4-4-5-5-6-6-

|Bridge|

e|--------------------------------------
B|--------------------------------------
G|--------------------------------------
D|-----2-3------------------------------
A|-----2-3------------------------------
D|0-0-x----0-2-2-/3-3-3-/4-4/-5-5-/6---