Stop Censorship
 
 

 
 1-9 a b c d e f g h i j k l m n o p q r s t u v w x y z
   Altues - Nameless Tab    

-------------------------------------------------------------------------------
Altues - Nameless
-------------------------------------------------------------------------------
Tabbed by: Me
Email: york_1232hotamil.com If there are any problems please email me.

Tuning: normal

Intro x4
e|---------------------------------------------------------------------------|
B|---------------------------------------------------------------------------|
G|---------------------------------------------------------------------------|
D|---------4-------------4-----------2-----------2----------5----------------|
A|------4-----4-----4-------4-----2-----2-----2-----2----5-----5-------------|
E|--2------------2-------------0-----------0----------3-----------5----------|
Palm Mute ..........................................................


Chorus
e|---------------------------------------------------------------------------|
B|---------------------------------------------------------------------------|
G|---------------------------------------------------------------------------|
D|--4--4--4--4---2--2--2-2---5-5-5-5-/-7-7-7---------------------------------|
A|--4--4--4--4---2--2--2-2---5-5-5-5-/-7-7-7---------------------------------|
E|--2--2--2--2---0--0--0-0---3-3-3-3-/-5-5-5---------------------------------|

Verse
e|---------------------------------------------------------------------------|
B|---------------------------------------------------------------------------|
G|---------------------------------------------------------------------------|
D|-4-4-4---5-5-5---4-4-4---5-5-/-7-7-----------------------------------------|
A|-4-4-4---5-5-5---4-4-4---5-5-/-7-7-----------------------------------------|
E|-2-2-2---3-3-3---2-2-2---3-3-/-5-5-----------------------------------------|

Solo
e|---------------------------------------------------------------------------|
B|-9--11^-11-9---------------------9-11^-11-9--------------------------------|
G|-------------11-11-9---8-9-8-9^--------------11-11-9--8-9-8-9~-------------|
D|---------------------------------------------------------------------------|
A|---------------------------------------------------------------------------|
E|---------------------------------------------------------------------------|

Order of song:

Intro x4 palm mute first 2 times only.
Chorus x2
Intro x2
Chorus X2
Verse x2
Solo
Chorus
Intro

| / slide up
| ~ vibrato
| ^ bend up
===============================================================================