Stop Censorship
 
 

 
 1-9 a b c d e f g h i j k l m n o p q r s t u v w x y z
   Amen - Buy American Tab    

Buy American

Guitar 1

intro riffs (both guitar)

e--------------------------------------------------------------------
b--------------------------------------------------------------------
g--------------------------------------------------------------------
d--------------------------------------------------------------------
a--------------------------------------------------------------------
d---7-0-3-5-0-33-0---4 times-then-----5*-0-3-5-0-00-5*-0-3-5-0-----

for the notes with the star one guitar plays a 5 and one plays a 7

there are lots of random bends and scrapes, just improvise them

verse (0.39) one guitar only

e------------------------------------------------------
g------------------------------------------------------
b------------------------------------------------------
d---------13*------------------------------------------ * very quiet
a-15---14-------13-------15-----14-----13--------------
d------------------------------------------------------

chorus (0.58) first time

e-----------------------------------------------------------------------------
b-------------------------------------------------------------------11--------
g--------------------10--12-12-12-12-12-12-10--------------------10-----------
d--12-12-12-12-12-12-----12-12-12-12-12-12-----12-12-12-12-12-12--------------
a-----------------------------------------------------------------------------
d-----------------------------------------------------------------------------

e---------------------------------------------------------------------------------------------
b------------------------------------------------------------------13-13-13-13-13-13-15-16----
g--------------------10--12-12-12-12-12-12-10-------------13-13----12-12-12-12-12-12-14-15----
d--12-12-12-12-12-12-----12-12-12-12-12-12----13-13-13-13-13-13-15----------------------------
a---------------------------------------------------------------------------------------------
d---------------------------------------------------------------------------------------------

main riff (1.16)

e------------------------------------------------------
b------------------------------------------------------
g------------------------------------------------------
d--5-0-3-5-0---0-0-5-0-3-5-0---------------------------
a--5-0-3-5-0---0-0-5-0-3-5-0---------------------------
d--5-0-3-5-0---0-0-5-0-3-5-0---------------------------

chorus 2 (1.55)

e-----------------------------------------------------------------------------------------------
b-------------------------------------------------------------------11-11-11-11-11-11-11-11-----
g--------------------10--12-12-12-12-12-12-10--------------------10-----------------------------
d--12-12-12-12-12-12---------------------------12-12-12-12-12-12--------------------------------
a-----------------------------------------------------------------------------------------------
d-----------------------------------------------------------------------------------------------

e-----------------------------------------------------------------------------------------------
b-----------------------------------------------------------------------------------------------
g--------------------10--12-12-12-12-12-12-10-----------------------15b-15b-15b-15b-15b-15b-15b-
d--12-12-12-12-12-12---------------------------13-13-13-13-13-13-15-----------------------------
a-----------------------------------------------------------------------------------------------
d-----------------------------------------------------------------------------------------------

chorus variation (2.14)

e------------------------------------------------------------
b------------------------------------------------------------
g------------------------------------------------------------
d---12-pick evenly whole way through then--15b at same tempo-
a------------------------------------------------------------
d------------------------------------------------------------


(2.25) with lots of wah and weird effect

e------------------
b------------------
g------------------
d--0----h1-1p0-----
a--0---------------
d--0---------------

(2.44) with wah again, or strange effect

e------------------------------------------------------------
b------------------------------------------------------------
g------------------------------------------------------------
d------------------------------------------------------------
a--------------------------------------000000 (these last time only)----------------
d--0-3h6-0-0-0-0-0-0-0-6p3-0-0-0-0-0-0-----------------------


(2.53)

e-------
b-------
g-------
d--0----
a-------
d-------

BUY AMERICAN!!! (3.02)

e------------------------------------------------------------
b------------------------------------------------------------
g------------------------------------------------------------
d---0-3-6-0-0-0-3-6-0---0-3-6-0-0-0-6-3---------------------
a---0-3-6-0-0-0-3-6-0---0-3-6-0-0-0-6-3----------------------
d---0-3-6-0-0-0-3-6-0---0-3-6-0-0-0-6-3----------------------

repeat that however many times and thats the lead channel




rhythm guitar (if not specified everything is the same)

verse 1 (0.39)

e---------------------------------0----------0---------------
b-------------------------------1----------0-----------------
g-----------------------------1----------0-------------------
d---------------------------1----------0---------------------
a--3-----2-----1-----0----3----------2----------1----0-------
d------------------------------------------------------------



chorus 1 (0.58)

e----------------------------------------------------------------------
b----------------------------------------------------------------------
g---7-7-7-7-7-7-7-7-5-5-5-5-5-5-5-5-7-7-7-7-7-7-7-7--------------------
d---7-7-7-7-7-7-7-7-5-5-5-5-5-5-5-5-7-7-7-7-7-7-7-7--8-8-8-8-8-8-8-8---
a---5-5-5-5-5-5-5-5-3-3-3-3-3-3-3-3-5-5-5-5-5-5-5-5--8-8-8-8-8-8-8-8---
d----------------------------------------------------8-8-8-8-8-8-8-8---

e----------------------------------------------------------------------
b----------------------------------------------------------------------
g---7-7-7-7-7-7-7-7-5-5-5-5-5-5-5-5------------------------------------
d---7-7-7-7-7-7-7-7-5-5-5-5-5-5-5-5-3-3-3-3-3-3-3-3--1-1-1-1-1-1-1-1---
a---5-5-5-5-5-5-5-5-3-3-3-3-3-3-3-3-3-3-3-3-3-3-3-3--1-1-1-1-1-1-1-1---
d-----------------------------------3-3-3-3-3-3-3-3--1-1-1-1-1-1-1-1---

verse 2 is same as 1, but with very strange effect



chorus 2 (1.55)

e----------------------------------------------------------------------
b----------------------------------------------------------------------
g---7-7-7-7-7-7-7-7-5-5-5-5-5-5-5-5-7-7-7-7-7-7-7-7--------------------
d---7-7-7-7-7-7-7-7-5-5-5-5-5-5-5-5-7-7-7-7-7-7-7-7-8-8-8-8-8-8-8-8----
a---5-5-5-5-5-5-5-5-3-3-3-3-3-3-3-3-5-5-5-5-5-5-5-5-8-8-8-8-8-8-8-8----
d---------------------------------------------------8-8-8-8-8-8-8-8----

e----------------------------------------------------------------------
b----------------------------------------------------------------------
g---7-7-7-7-7-7-7-7-5-5-5-5-5-5-5-5------------------------------------
d---7-7-7-7-7-7-7-7-5-5-5-5-5-5-5-5-3-3-3-3-3-3-3-3-1-1-1-1-1-1-1-1----
a---5-5-5-5-5-5-5-5-3-3-3-3-3-3-3-3-3-3-3-3-3-3-3-3-1-1-1-1-1-1-1-1----
d-----------------------------------3-3-3-3-3-3-3-3-1-1-1-1-1-1-1-1----

e----------------------------------------------------------------------
b----------------------------------------------------------------------
g---7-7-7-7-7-7-7-7-5-5-5-5-5-5-5-5-7-7-7-7-7-7-7-7-3-3-3-3-3-3-3-3----
d---7-7-7-7-7-7-7-7-5-5-5-5-5-5-5-5-7-7-7-7-7-7-7-7-x-x-x-x-x-x-x-x----
a---5-5-5-5-5-5-5-5-3-3-3-3-3-3-3-3-5-5-5-5-5-5-5-5-1-1-1-1-1-1-1-1----
d----------------------------------------------------------------------

(2.25) with wah

e----------------------------------------------------
b----------------------------------------------------
g----------------------------------------------------
d--0--------------0----------------0----------(0)----
a--0----------------3-0--------------0---------------
d--0--------------------3b-p-0---------0-------------

note


(2.44)

e----------------------------------------------------------
b----------------------------------------------------------
g----------------------------------------------------------
d----------------------------------------------------------
a----------------------------------------------------------
d--0-3h6-0-0-0-0-0-0-0-0-3h6-0-0-0-0-0-0--etc--------------


BUY AMERICAN!

e----------------------------------------------------------------------------
b----------------------------------------------------------------------------
g---7-----10---7------12-------------------------------------------------------------
d----------------------------------------------------------------------------
a---5-----8----5------10----------------------------------------------------------
d----------------------------------------------------------------------------

play these chords, they are repeated so often it isnt worth showing, so just listen to the record and you can hear when it changes.

remember to cut and paste into notepad.