Stop Censorship
 
 

 
 1-9 a b c d e f g h i j k l m n o p q r s t u v w x y z
   Amen - Californias Bleeding Tab    

E|------------------------------------
B|------------------------------------
G|--7~~~~~~~~~~~~-5h6p5-7~~~~~~~~~~~--
D|------------------------------------
A|------------------------------------
D|------------------------------------

|-----------------------
|-----------------------
|-----------------------
|--10--12-12-10-12--12--
|--10--12-12-10-12--12--
|--10--12-12-10-12--12--

|--------------------------
|--------------------------
|--------------------------
|--10--12-12-10-12--8--10--
|--10--12-12-10-12--8--10--
|--10--12-12-10-12--8--10--

|-----------------------
|-----------------------
|-----------------------
|--10--12-12-10-12--12--
|--10--12-12-10-12--12--
|--10--12-12-10-12--12--

|--------------------------
|--------------------------
|--------------------------
|--10--12-12-10-12--8--10--
|--10--12-12-10-12--8--10--
|--10--12-12-10-12--8--10--

|-----------------------
|-----------------------
|-----------------------
|--10--12-12-10-12--12--
|--10--12-12-10-12--12--
|--10--12-12-10-12--12--

|--------------------
|--------------------
|--------------------
|--5--7-7-5-7--3--5--
|--3--5-5-3-5--1--3--
|--------------------

|--------------------------------------------------------------------
|--------------------------------------------------------------------
|--------------------------------------------------------------------
|--7-7-8-7-7-7-8-7--5-5-7-5-5-5-7-5--3-3-5-3-3-3-5-3-3-3-5-3-0-------
|--5-5-5-5-5-5-5-5--5-5-5-5-5-5-5-5--3-3-3-3-3-3-3-3-3-3-3-3-0-3-3-3-
|-------------------5-5-5-5-5-5-5-5--3-3-3-3-3-3-3-3-3-3-3-3-0-3-3-3-

|--------------------------------------------------------------------
|--------------------------------------------------------------------
|--------------------------------------------------------------------
|--7-7-8-7-7-7-8-7--5-5-7-5-5-5-7-5--3-3-5-3-3-3-5-3-5-5-5-5-5-5-5-5-
|--5-5-5-5-5-5-5-5--5-5-5-5-5-5-5-5--3-3-3-3-3-3-3-3-5-5-5-5-5-5-5-5-
|-------------------5-5-5-5-5-5-5-5--3-3-3-3-3-3-3-3-5-5-5-5-5-5-5-5-

|-----------------------
|-----------------------
|-----------------------
|--10--12-12-10-12--12--
|--10--12-12-10-12--12--
|--10--12-12-10-12--12--

|--------------------------
|--------------------------
|--------------------------
|--10--12-12-10-12--8--10--
|--10--12-12-10-12--8--10--
|--10--12-12-10-12--8--10

|-----------------------
|-----------------------
|-----------------------
|--10--12-12-10-12--12--
|--10--12-12-10-12--12--
|--10--12-12-10-12--12--

|--------------------------
|--------------------------
|--------------------------
|--10--12-12-10-12--8--10--
|--10--12-12-10-12--8--10--
|--10--12-12-10-12--8--10--

|-----------------------
|-----------------------
|-----------------------
|--10--12-12-10-12--12--
|--10--12-12-10-12--12--
|--10--12-12-10-12--12--

|--------------------
|--------------------
|--------------------
|--5--7-7-5-7--3--5--
|--3--5-5-3-5--1--3--
|--------------------


|--------------------------------------------------------------------
|--------------------------------------------------------------------
|--------------------------------------------------------------------
|--7-7-8-7-7-7-8-7--5-5-7-5-5-5-7-5--3-3-5-3-3-3-5-3-3-3-5-3-0-------
|--5-5-5-5-5-5-5-5--5-5-5-5-5-5-5-5--3-3-3-3-3-3-3-3-3-3-3-3-0-3-3-3-
|-------------------5-5-5-5-5-5-5-5--3-3-3-3-3-3-3-3-3-3-3-3-0-3-3-3-

|--------------------------------------------------------------------
|--------------------------------------------------------------------
|--------------------------------------------------------------------
|--7-7-8-7-7-7-8-7--5-5-7-5-5-5-7-5--3-3-5-3-3-3-5-3-5-5-5-5-5-5-5-5-
|--5-5-5-5-5-5-5-5--5-5-5-5-5-5-5-5--3-3-3-3-3-3-3-3-5-5-5-5-5-5-5-5-
|-------------------5-5-5-5-5-5-5-5--3-3-3-3-3-3-3-3-5-5-5-5-5-5-5-5-

|----------------------------------------------
|--15--------------------15-------------15-17--
|------14--15--14-15-14------14--15--14--------
|----------------------------------------------
|----------------------------------------------
|----------------------------------------------

|----------------------------------------------
|--15--------------------15-------------17^----
|------14--15--14-15-14------14--15--14--------
|----------------------------------------------
|----------------------------------------------
|----------------------------------------------

|----------------------------
|----------------------------
|----------------------------
|--12-12-10-12---------------
|--12-12-10-12---------------
|--12-12-10-12--12-12-10-12-- x8

|--------------------------------------------------------------------
|--------------------------------------------------------------------
|--------------------------------------------------------------------
|--7-7-8-7-7-7-8-7--5-5-7-5-5-5-7-5--3-3-5-3-3-3-5-3-3-3-5-3-0-------
|--5-5-5-5-5-5-5-5--5-5-5-5-5-5-5-5--3-3-3-3-3-3-3-3-3-3-3-3-0-3-3-3-
|-------------------5-5-5-5-5-5-5-5--3-3-3-3-3-3-3-3-3-3-3-3-0-3-3-3-

|--------------------------------------------------------------------
|--------------------------------------------------------------------
|--------------------------------------------------------------------
|--7-7-8-7-7-7-8-7--5-5-7-5-5-5-7-5--3-3-5-3-3-3-5-3-5-5-5-5-5-5-5-5-
|--5-5-5-5-5-5-5-5--5-5-5-5-5-5-5-5--3-3-3-3-3-3-3-3-5-5-5-5-5-5-5-5-
|-------------------5-5-5-5-5-5-5-5--3-3-3-3-3-3-3-3-5-5-5-5-5-5-5-5-

|-----------------------
|-----------------------
|-----------------------
|--10--12-12-10-12--12--
|--10--12-12-10-12--12--
|--10--12-12-10-12--12--

Luv u all 666goth666
XXXXXXXXXXXXXXXXXXXXX