Stop Censorship
 
 

 
 1-9 a b c d e f g h i j k l m n o p q r s t u v w x y z
   Amen - Coma America Tab    

ARTIST: Amen
TRACK: Coma America
ALBUM: Amen

TABBED BY: Ben (Death_Concession_666@hotmail.com)
WRITTEN BY: Casey Chaos

GUITARISTS: Paul Fig & Sonny Mayo / Rich Jones & Matt Montgomery
TUNING: Drop D ( D A D G B E )


INTRO 0:11/0:23

|-------------------------------------------------------------
|-------------------------------------------------------------
|-------------------------------------------------------------
|--8--7----8--7----8--7----8--7----8--7----8--7----8--7----8--
|--6--5----6--5----6--5----6--5----6--5----6--5----6--5----6--
|-------------------------------------------------------------


MAIN RIFF 0:23/0:36

|-------------------------------------------------------------------
|-------------------------------------------------------------------
|-------------------------------------------------------------------
|-------8-------7-------8-------7-------8-------7------10-------12--
|-------6-------5-------6-------5-------6-------5-------8-------10--
|--0-0-----0-0-----0-0-----0-0-----0-0-----0-0-----0-0-----0-0------

|-----------------------------------------------------------------------
|-----------------------------------------------------------------------
|-----------------------------------------------------------------------
|-------8-------7-------8-------7-------8-------7------10---------------
|-------6-------5-------6-------5-------6-------5-------8-------10-/-0--
|--0-0-----0-0-----0-0-----0-0-----0-0-----0-0-----0-0-----0-0----------


VERSE 0:36/0:49

|-----------------------------------------------------------------------
|--0--0--1---0--0--0---0--0--1---0--0--0---0--0--1---0--0--0---0--0--1--
|--0--0--1---0--0--0---0--0--1---0--0--0---0--0--1---0--0--0---0--0--1--
|--0--0--1---0--0--0---0--0--1---0--0--0---0--0--1---0--0--0---0--0--1--
. . . . . . . . . . . . . . . . . . . . .

|--------------
|--0--5--8--6--
|--0--5--8--6--
|--0--5--8--6--


|-----------------------------------------------------------------------
|--0--0--1---0--0--0---0--0--1---0--0--0---0--0--1---0--0--0---0--0--1--
|--0--0--1---0--0--0---0--0--1---0--0--0---0--0--1---0--0--0---0--0--1--
|--0--0--1---0--0--0---0--0--1---0--0--0---0--0--1---0--0--0---0--0--1--
. . . . . . . . . . . . . . . . . . . . .

|--------------
|--0--5--8--6--
|--0--5--8--6--
|--0--5--8--6--


MAIN RIFF 0:49/1:01

|------------------------------------------------------------------------
|------------------------------------------------------------------------
|------------------------------------------------------------------------
|-------8--------7-------8---------7-------8---------7------10-------12--
|-------6--------5-------6---------5-------6---------5-------8-------10--
|--0-0----0-0-0-----0-0-----0-0-0-----0-0-----0-0-0-----0-0-----0-0------

|-----------------------------------------------------------------------
|-----------------------------------------------------------------------
|-----------------------------------------------------------------------
|-------8-------7-------8-------7-------8-------7------10---------------
|-------6-------5-------6-------5-------6-------5-------8-------10-/-0--
|--0-0-----0-0-----0-0-----0-0-----0-0-----0-0-----0-0-----0-0----------


VERSE 1:01/1:14

|-----------------------------------------------------------------------
|--0--0--1---0--0--0---0--0--1---0--0--0---0--0--1---0--0--0---0--0--1--
|--0--0--1---0--0--0---0--0--1---0--0--0---0--0--1---0--0--0---0--0--1--
|--0--0--1---0--0--0---0--0--1---0--0--0---0--0--1---0--0--0---0--0--1--
. . . . . . . . . . . . . . . . . . . . .

|--------------
|--0--5--8--6--
|--0--5--8--6--
|--0--5--8--6--

|-----------------------------------------------------------------------
|--0--0--1---0--0--0---0--0--1---0--0--0---0--0--1---0--0--0---0--0--1--
|--0--0--1---0--0--0---0--0--1---0--0--0---0--0--1---0--0--0---0--0--1--
|--0--0--1---0--0--0---0--0--1---0--0--0---0--0--1---0--0--0---0--0--1--
. . . . . . . . . . . . . . . . . . . . .

|--------------
|--0--5--8--6--
|--0--5--8--6--
|--0--5--8--6--


CHORUS 1:14/1:26

|--------------------------------------
|--------------------------------------
|--------------------------------------
|--------------------------------------
|--------------------------------------
|--6-5-3-0--6-5-3-0--6-5-3-0--6-5-3-0--

|--------------------------------------
|--------------------------------------
|--------------------------------------
|--6-5-3-0--6-5-3-0--6-5-3-0--6-5-3-3--
|--6-5-3-0--6-5-3-0--6-5-3-0--6-5-3-3--
|--6-5-3-0--6-5-3-0--6-5-3-0--6-5-3-3-- x2

|--------------------------------------
|--6-5-3-0--6-5-3-0--6-5-3-5--6-5-6-8--
|--6-5-3-0--6-5-3-0--6-5-3-5--6-5-6-8--
|--6-5-3-0--6-5-3-0--6-5-3-5--6-5-6-8--


MAIN RIFF 1:26/1:39

|------------------------------------------------------------------------
|------------------------------------------------------------------------
|------------------------------------------------------------------------
|-------8--------7-------8---------7-------8---------7------10-------12--
|-------6--------5-------6---------5-------6---------5-------8-------10--
|--0-0----0-0-0-----0-0-----0-0-0-----0-0-----0-0-0-----0-0-----0-0------

|-----------------------------------------------------------------------
|-----------------------------------------------------------------------
|-----------------------------------------------------------------------
|-------8-------7-------8-------7-------8-------7------10---------------
|-------6-------5-------6-------5-------6-------5-------8-------10-/-0--
|--0-0-----0-0-----0-0-----0-0-----0-0-----0-0-----0-0-----0-0----------


FILL THEN INTO CHORUS 1:39/1:51


CHORUS 1:51/2:04

|--------------------------------------
|--6-5-3-0--6-5-3-0--6-5-3-0--6-5-3-3--
|--6-5-3-0--6-5-3-0--6-5-3-0--6-5-3-3--
|--6-5-3-0--6-5-3-0--6-5-3-0--6-5-3-3--

|---------------------------------------
|--6-5-3-0--6-5-3-0--6-5-3-0--6-5-6-8--
|--6-5-3-0--6-5-3-0--6-5-3-0--6-5-6-8--
|--6-5-3-0--6-5-3-0--6-5-3-0--6-5-6-8--


MAIN RIFF 2:04/2:16

|------------------------------------------------------------------------
|------------------------------------------------------------------------
|------------------------------------------------------------------------
|-------8--------7-------8---------7-------8---------7------10-------12--
|-------6--------5-------6---------5-------6---------5-------8-------10--
|--0-0----0-0-0-----0-0-----0-0-0-----0-0-----0-0-0-----0-0-----0-0------

|-----------------------------------------------------------------------
|-----------------------------------------------------------------------
|-----------------------------------------------------------------------
|-------8-------7-------8-------7-------8-------7------10---------------
|--0-0--6--0-0--5--0-0--6--0-0--5--0-0--6--0-0--5--0-0--8--0-0--10-/-0--
|--0-0-----0-0-----0-0-----0-0-----0-0-----0-0-----0-0-----0-0----------


END ON 2:16/2:18

|--------
|--0--0--
|--0--0--
|--0--0--