Stop Censorship
 
 

 
 1-9 a b c d e f g h i j k l m n o p q r s t u v w x y z
   Amen - Everything Is Untrue Tab    

Artist:amen
song:everything is untrue
tabbed by:methirus@hotmail.com
ALBUM:Faust soundtrack


Intro

G-------------------------------------------
D-------------------------------------------
A-------------------------------------------
E--2---2---3----2----2-----3-----2----2---3-

Verse

G-------------
D-------------
A-------------
E-2-0-2-0-3-0-

before slow bit "another kind of sheep"
G----------------------
D----------------------
A----------------------
E-2-1-0-2-1-0--2h3h2---

"everything is untrue, is everything that you do"
G--------------------------
D--------------------------
A--------------------------
E-1-0-2----2-----0------1--

outro
G---------------------------------------------
D---------------------------------------------
A---------------------------------------------
E-3-3-3-3-3-4-4-4-4-4-4-8-8-8-8-8-1-1-1-1-1-1-

It does not change on the very end of the song. The bass stays the same and can be heard lightly underneath the guitar. Timing changes for the outro throughout the end.