Stop Censorship
 
 

 
 1-9 a b c d e f g h i j k l m n o p q r s t u v w x y z
   Amen - No Cure For The Pure Tab    

tabbed by nohope18

album:amen
band:Amen
song:no cure for the pure
key:
^=bend up

Drop d tuning

intro G1
D|-2-2-2-2--3-3-3-2--|
A|-2-2-2-2--3-3-3-2--|
d|-2-2-2-2--3-3-3-2--|

G2
D|---------------------|
A|---------------------|
d|8-7-9-7---------9^---|

verse G1
|-2-2-2-2--3-3-3-3--4-4-4-4--4-4-4-4-|
|-2-2-2-2--3-3-3-3--4-4-4-4--4-4-4-4-|
|-2-2-2-2--3-3-3-3--4-4-4-4--4-4-4-4-|

G2
|-0-0-----0-0------|
|-----7-7-----7-7--|
|-----9-9-----9-9--|
|-----9-9-----9-9--|

chorus both guitars
|-2-2-2-2--3-3-3-3--4-4-4-4--4-4-5-4-|
|-2-2-2-2--3-3-3-3--4-4-4-4--4-4-5-4-|
|-2-2-2-2--3-3-3-3--4-4-4-4--4-4-5-4-|

Riff A G1
D|-2-2-2-2--3-3-3-2--|
A|-2-2-2-2--3-3-3-2--|
d|-2-2-2-2--3-3-3-2--|

G2
D|---------------------|
A|---------------------|
d|8-7-9-7---------9^---|

Riff B both guitars
|-0-0-0-0----------|
|---------7-7-7-7--|
|---------9-9-9-9--|
|---------9-9-9-9--|

Riff C
|-0-0--0-0-0--|
|-------------|
|-------------|

outro both guitars
|-0-0---------0-0-------------|
|-----------------------------|
|-----8-7-8-7-----8-7-8-7-8-7-|

Thats all for that!
Listen to the song for the timing.

x x magic face!
-[-|-]-