Stop Censorship
 
 

 
 1-9 a b c d e f g h i j k l m n o p q r s t u v w x y z
   Amen - No Morals Tab    

No Morals by Amen

Tabbed by Asscobra (the_asscobra@hotmail.com)
if you put this tab any where please leave it as it is
and give me credit and the band as they wrote it in the first

Tuning: Drop D [D,A,D,G,b,e]
Main riff
e|------------------------------------|
b|------------------------------------|
G|----------------------------5-------|
D|-77777777-33333333-55555555-5-5--7--|
A|-77777777-33333333-55555555-3-5--7--|
D|-77777777-33333333-55555555---5--5--|

Chorus
e|----------------------------------|
b|----------------------------------|
G|-------------5-5------------------|
D|-7-7-3-3-5-5-5-5-7-7-3-3-5-5-5-5--|
A|-7-7-3-3-5-5-3-3-7-7-3-3-5-5-5-5--|
D|-7-7-3-3-5-5-----7-7-3-3-5-5-5-5--|

all corrections will be gladly accepted