Stop Censorship
 
 

 
 1-9 a b c d e f g h i j k l m n o p q r s t u v w x y z
   Amen - We Got The Bait Tab    

We Got The Bait by Amen

Tabbed by Asscobra (the_asscobra@hotmail.com)
if you put this tab any where please leave it as it is
and give me credit and the band as they wrote it in the first

Tuning: Drop D [D,A,D,G,b,e]
Intro:
e|---------|
b|--------o|
G|---------|
D|---------|
A|-0--3-3-o|
D|---------|
2nd guitar plays:
e|------------------------------|
b|------------------------------|
G|------------------------------|
D|------------------------------|
A|------------------------------|
D|-10~~~12~~~~13~~~~~~15~~~~~~--|


verse:
e|------------------------------|
b|------------------------------|
G|-5-5--5-----------------------|
D|-5-5--5-5-5--5-6-6--6-1-1--1--|
A|-3-3--3-5-5--5-6-6--6-1-1--1--|
D|--------5-5--5-6-6--6-1-1--1--|


Bridge:
e|---------------------------------------------------|
b|---------------------------------------------------|
G|-5-5-5-5-5-5-7-7-7-7-7-7---------------------------|
D|-5-5-5-5-5-5-7-7-7-7-7-7-6-6-6-6-6-6-6-8-8-8-8-8-8-|
A|-3-3-3-3-3-3-5-5-5-5-5-5-6-6-6-6-6-6-6-8-8-8-8-8-8-|
D|-------------------------6-6-6-6-6-6-6-8-8-8-8-8-8-|


During Verse 2 this is played sometimes:
e|---------------------------------|
b|---------------------------------|
G|-5-5--5-7-7--7-8-8--8-10-10--10--|
D|-5-5--5-7-7--7-8-8--8-10-10--10--|
A|-3-3--3-5-5--5-6-6--6--8--8---8--|
D|---------------------------------|


Chorus:
e|-----------------------------------|
b|-----------------------------------|
G|-----------------------------------|
D|-5-0-5h6-0-0--5-0-5-0-5h6-0-0-0-0--|
A|-5-0-5h6-0-0--5-0-5-0-5h6-0-0-0-0--|
D|-5-0-5h6-0-0--5-0-5-0-5h6-0-0-0-0--|


outro:
e|---------------|
b|---------------|
G|---------------|
D|---------------|
A|-7b~~~~~~~~~~--|
D|---------------|
Played over the chorus riff with feedback sort off sound


all corrections will be gladly accepted