Stop Censorship
 
 

 
 1-9 a b c d e f g h i j k l m n o p q r s t u v w x y z
   Anssi Kela - Kaunotar Ja Basisti Tab    

Artist: Anssi Kela
Song: Kanotar ja basisti
Tabbed by Spein

Anssi Kela is a finnish artist from Nummela. This song is from his
first (and only so far...) album "Nummela".


Dropped D-tuning (DAEDGBe)

Capo on 2nd fret (tab related to capo)

D Em G F#m A
Chords needed: |-2--0--3---2--0-|
|-3--0--3---2--2-|
|-2--0--0---2--2-|
|-0--2--0---4--2-|
|(0)-2--x---x--0-|
|(0)-2--5---4----|
INTRO:

|-0h2-2-2-0-0h2-0-----------0-0-0---0---0-0---|
|-3---3-3-3-3---3-3-3-2-----0-0---0-0---0---0-|
|-2---2-2-2-2---2-2-2-2-2---0-0-----0---0-----|
|-0---0-0-0-0---0-0-0-0-0-4-2-2-----0h2-2-----| repeat 2x
|-0---0-0-0-0-----0-0-0-0-0-2-2-----0h2-2-----|
|-0---0-0-0-0-----0-0-0-0-0-2-2-----0h2-2-----|

VERSE: same as intro

CHORUS: G F#m
Tää onko kaikki kuvitelmaa vaan?
Em D
Taas luulenko liikaa, luulenko liikaa?
G F#m
En ajatuksilatani rauhaa saa
Em A
Kun kaiken aikaa, mietin mielessäin;

Tunteeko hänkin myös näin?

repeat INTRO + VERSE

repeat CHORUS

BRIDGE: |-7/9--9--7-5--3/5-5-3-2-0-0-0---0---0-0---|
|-8/10-10-8-7--5/7-7-5-3-0-0---0-0---0---0-|
|-7/9--9--7-7--4/7-7-4-2-0-0-----0---0-----| repeat 2x
|-0----0--0-0--0-0-0-0-0-2-2-----0h2-2-----|
|-0----0--0-0--0-0-0-0---2-2-----0h2-2-----|
|-0----0--0-0--0-0-0-0---2-2-----0h2-2-----|

repeat CHORUS

repeat VERSE

end with: |-----------2--|
|---------3----|
|-------2------|
|-----0--------|
|---0----------|
|-0------------|

That`s it! Easy to learn.

SPEIN