Stop Censorship
 
 

 
 1-9 a b c d e f g h i j k l m n o p q r s t u v w x y z
   Arch Enemy - Burning Angel Tab    




ARCH ENEMY - BURNING ANGEL
Tabbed by: SARSGUITAR (HERBY)




. - palm mute ph - pinched harmonic
/ - slide up to ah - artificial harmonic
- slide down to th - tap harmonic
~ - vibrato hr - natural harmonic
h - hammer on b - bend
p - pull off Suffixes for bend
t - tap with finger f - full bend h - half bend
" - tremolo picking r - release t - tap bend
X - percussion mute p - pick when bent
> - accented note Prefixes
() - ghost note, sustained note p - pre-bend w - use bar
* - see comment d - don`t pick start of bend

Tune Gtr to C (2 Whole Steps Down)

--BURNING ANGEL--

[Rhy.Fig.1]
||------------------------------------------------------------|
||------------------------------------------------------------|
||*-----------------------------------------------------------|(both guitars)
||*-9-9-9-9-9-9-9-9-9-9-9-9-9-9-9-9-10-10-10-10-10-10-10-10---|
||--7-7-7-7-7-7-7-7-7-7-7-7-7-7-7-7-7--7--7--7--7--7--7--7----|
||------------------------------------------------------------|




|-------------------------------------------------------------||
|-------------------------------------------------------------||
|-------------------------------------------------------------||(both guitars)
|--10-10-10-10-10-10-10-10-10101010101010101010101010101010---||
|--7--7--7--7--7--7--7--7--8-8-8-8-8-8-8-8-8-8-8-8-8-8-8-8----||
|-------------------------------------------------------------||
| ||
| ||
| ||
|-------------------------------------------------------------||
|-------------------------------------------------------------||
|------------------------------------------------------------*||(both guitars)
|--9--9--9--9--9--9--9--9--9--9--9--9--9--9--9--9------------*||
|--7--7--7--7--7--7--7--7--6--6--6--6--6--6--6--6-------------||
|-------------------------------------------------------------||


[Rhy.Fig.1a] (w/Wah pedal)
||-----------------------------------------------------------------||
||-----------------------------------------------------------------||
||*----------------------------------------------------------------||(Gtr.3)
||*----------------------------------------------------------------||
||--7~---7-7-7-9-7-9-7-10~---7-7-7-9-7-9-10-8~---8-8-8-8-8-8-------||
||-----------------------------------------------------------------||
|| ||
|| ||
|| ||
||-----------------------------------------------------------------||
||-----------------------------------------------------------------||
||----------------------------------------------------------------*||(Gtr.3)
||----------------------------------------------------------------*||
||--10-8-7~---9_7-6~-----------------------------------------------||
||-------------p---------------------------------------------------||


[Lead] (w/Wah pedal: Michael Amott)
|-----------------------------------------------------------------|
|-----------------------------------------------------------------|
|--9~----9-9-9-11-9-11-9-12~---9-9-9-11-9-11-12-10~---10-10-10----|
|-----------------------------------------------------------------|
|-----------------------------------------------------------------|
|-----------------------------------------------------------------|




|-----------------------------------------------------------------|
|-----------------------------------------------------------------|
|--10-10-10-12-10-9~---11_9-8~------------------------------------|
|------------------------p----------------------------------------|
|-----------------------------------------------------------------|
|-----------------------------------------------------------------|


[Lead] (Over above lead: Christopher Amott)
|-----------------------------------------------------------------|
|--8~----8-8-8-10-8-10-8-11~---8-8-8-10-8-10-11-9~---9-9-9-9-9-9--|
|-----------------------------------------------------------------|
|-----------------------------------------------------------------|
|-----------------------------------------------------------------|
|-----------------------------------------------------------------|




|-----------------------------------------------------------------|
|--11-9-8~---10_8-7~----------------------------------------------|
|--------------p--------------------------------------------------|
|-----------------------------------------------------------------|
|-----------------------------------------------------------------|
|-----------------------------------------------------------------|


[Rhy.Fig.2]
||----------------------------------------------------------------||
||----------------------------------------------------------------||
||*---------------------------------------------------------------||(both guitars)
||*-6-----6-----6---------10-----10-----10---------7-----7-----7--||
||--7-7-7-7-7-7-7-7-7-7-7-7--7-7-7--7-7-7--7-7-7-7-8-8-8-8-8-8-8--||
||----------------------------------------------------------------||
|| . . . . . . . . . . . . . . . . . . . . ||
|| ||
|| ||
||----------------------------------------------------------------||
||----------------------------------------------------------------||
||---------------12-------9--------------------------------------*||(both guitars)
||---------------12-------9--------------------------------------*||
||--8-8-8-8--10--------7------------------------------------------||
||----------------------------------------------------------------||
. . . .


Repeat Rhy.Fig.2 [3x]


[Rhy.Fig.3](**)
||---------------------------------|-----------------------------------|
||---------------------------------|-----------------------------------|
||*--------------------------------|-----------------------------------|
||*-7--9--7__9__7------------------|-----------------------------------|
||----------h-p----10--9--10-(10)-|-222---222---222---222---222-------|
||-------------------------------sl|-000---000---000---000---000-------|
|| ... ... ... ... ... |
|| |
|| |
||---------------------------------|-----------------------------------|
||--10-12-10_12_10-----------------|-----------------------------------|
||*---------h--p---12-11-12--(12)-|-----------------------------------|
||*------------------------------sl|-----------------------------------|
||---------------------------------|-222---222---222---222---222-------|
||---------------------------------|-000---000---000---000---000-------|
... ... ... ... ...


(**) = I saw them live, this is how they played it!


|----------------------------------|-----------------------------------||
|----------------------------------|->---------------->----------------||
|----------------------------------|-5----------------7---------------*||
|--7--9--7__9__7-------------------|-5----------------7---------------*||
|----------h-p----10--9------(9)--|-3----------------5----------------||
|-------------------------------sl-|-----------------------------------||
| ||
| ||
| ||
|----------------------------------|-----------------------------------||
|--10-12-10_12_10------------------|->---------------->----------------||
|----------h--p---12-11-----(11)--|-5----------------7---------------*||
|------------------------------sl--|-5----------------7---------------*||
|----------------------------------|-3----------------5----------------||
|----------------------------------|-----------------------------------||


Repeat Rhy.Fig.3 [1x]
Repeat Rhy.Fig.1 + 1a [2x]
Repeat Rhy.Fig.2 [4x]
Repeat Rhy.Fig.3 [2x]


[Rhy.Fig.4]
||-----------------------|----------------------|-----------------------|
||-----------------------|----------------------|-----------------------|
||*-----------9----------|-----------9----------|-----------7/9--7/9----|(Gtr.1)
||*-----------9--------7-|-----------9--------7-|-----------------------|
||--0-0-0--7-----0--5--7-|-0-0-0--7-----0--5--7-|-0-0-0--7--5/7--5/7----|
||-----------------------|----------------------|-----------sl---sl-----|
|| . . . . . . . . . . . . . . . . |
|| |
|| --Both gtrs--|
||-----------------------|----------------------|-----------------------|
||-----------------------|----------------------|-----------------------|
||------------9----------|-----------9----------|-----------5--7--9-----|(Gtr.1)
||------------9--------7-|-----------9--------7-|-----------------------|
||--0-0-0--7-----0--5--7-|-0-0-0--7-----0--5--7-|-0-0-0--7--3--5--7-----|
||-----------------------|----------------------|-----------------^-----|
. . . . . . . . . . . . . . . .




|-----------------------|----------------------|------------------------||
|-----------------------|----------------------|------------------------||
|------------9----------|-----------9----------|-----------7/9--7/9-----||(both guitars)
|------------9--------7-|-----------9--------7-|------------------------||
|--0-0-0--7-----0--5--7-|-0-0-0--7-----0--5--7-|-0-0-0--7--5/7--5/7-----||
|-----------------------|----------------------|-----------sl---sl------||
| . . . . . . . . . . . . . . . . ||
| ||
| ||
|-----------------------|----------------------|------------------------||
|-----------------------|----------------------|------------------------||
|------------9----------|-----------9----------|-----------579--91112--*||(both guitars)
|------------9--------7-|-----------9--------7-|-----------------------*||
|--0-0-0--7-----0--5--7-|-0-0-0--7-----0--5--7-|-0-0-0--7--357--79-10---||
|-----------------------|----------------------|-------------^-----^----||
. . . . . . . . . . . . . . . .


[Rhy.Fig.5]
||------------------------------------------------||
||------------------------------------------------||
||*-----------------------------------------------||(both guitars)
||*-9---5--555-----7--777-----5--555-----7--777---||
||--7---3--333--7--5--555--5--3--333--7--5--555---||
||--------------5----------3----------5-----------||
|| ||
|| ||
|| ||
||------------------------------------------------||
||------------------------------------------------||
||-----------------------------------------------*||(both guitars)
||--9---5--555-----7--777-----5--555--------7--7-*||
||--7---3--333--7--5--555--5--3--333--7--7--5--5--||
||--------------5----------3----------5--5-----^--||
^

[Rhy.Fig.5a]
||---------------------------------------------------------------||
||---------------------------------------------------------------||
||*--------------------------------------------------------------||(both guitars)
||*-9------5-----5--------7-----7--------5-----5--------7-----7--||
||--7--7-7-3-3-3-3--7-----5-5-5-5--5-----3-3-3-3--7-----5-5-5-5--||
||------------------5-5-5----------3-3-3----------5-5-5----------||
|| . . . . . . . . . . . . . . . . ||
|| ||
|| ||
||---------------------------------------------------------------||
||---------------------------------------------------------------||
||--------------------------------------------------------------*||(both guitars)
||--9------5-----5--------7-----7--------5-----5--------7--7----*||
||--7--7-7-3-3-3-3--7-----5-5-5-5--5-----3-3-3-3--7--7--5--5-----||
||------------------5-5-5----------3-3-3----------5--5-----^-----||
. . . . . . . . . . . . ^


Repeat Rhy.Fig.5 [1x]


[Solo 1] (Michael Amott)
|-18fb----------------------------------------------------|
|----------17~--17-19-20-19-17-19---20-19-17_19_17----17--|
|-------------------------------------------h--p---19-----|
|---------------------------------------------------------|
|---------------------------------------------------------|
|---------------------------------------------------------|




|---------------------------------------------------------|
|---------------------------------------------------------|
|--19_16_19_16----16--------------------------------------|
|----p--h--p---19----19-17--19b--17_19_17-19b-------------|
|----------------------------------h--p-------------------|
|---------------------------------------------------------|




|---------------------------------------------------------|
|---------17-19-20-19-------20-19---19--19-20-22---------|
|--16--16--------------17--------sl-----------------------|
|---------------------------------------------------------|
|---------------------------------------------------------|
|---------------------------------------------------------|




|-------------------------------------22-23b--------------|
|--22fbr-20_22_20-22fbr----22fbr_20-----------------------|
|----------h--p-----------------p--21---------------------|
|---------------------------------------------------------|
|---------------------------------------------------------|
|---------------------------------------------------------|




|---------------------------------------------------------|
|--22_17_15_17-22_17_15_17-22_17_15_17-22_17_15_17--------|
|---t---p--h----t---p--h----t---p--h----t---p--h----------|
|---------------------------------------------------------|
|---------------------------------------------------------|
|---------------------------------------------------------|




|---------------------------------------------------------|
|--20_17--------------------------------------------------|
|----p---19_16-19_16------p-------------------------------|
|----------p-----p---19fbr-17-19b-17----------------------|
|------------------------------------19_17-19_17----------|
|--------------------------------------p-----p------------|




|---------------------------------------------------------|
|---------------------------------------------------------|
|---------------------------------------------------------|
|---------------------------------------------------------|
|---------------------------------------------------------|
|--15--17-15--10--8fb~------------------------------------|




|---------------------------------------------------------|
|--------------------11b----------------------------------|
|--9_10_9-9--9-11-12-----12-9ah-10-11_12_11-9-11----------|
|---h--p-----------------------------h--p-----------------|
|---------------------------------------------------------|
|---------------------------------------------------------|




|---------------------------------------------------------|
|---------------------------------------------------------|
|---------------------------------------------------------|
|--97-5-7-5~---------------------------------------------|
|---sl--------5-------------------------------------------|
|---------------Anh-7-6~-5--3--5--3--5--6--7--------------|



[Fill 1]
|--------------------------|
|--------------------------|
|--------------------------|(both guitars)
|--------------------------|
|--2--2--2--2--2--2--2--2--|
|--0--0--0--0--0--0--0--0--|
. . . . . . . .


[Rhy.Fig.1b]
||---------------------------------------------------------------------------||
||---------------------------------------------------------------------------||
||*--------------------------------------------------------------------------||(both guitars)
||*-10-10-10-10-10-10-10-10-10-10-10-10-10-10-10-10-11-11-11-11-11-11-11-11--||
||--8--8--8--8--8--8--8--8--8--8--8--8--8--8--8--8--8--8--8--8--8--8--8--8---||
||---------------------------------------------------------------------------||




|----------------------------------------------------------------------------||
|----------------------------------------------------------------------------||
|----------------------------------------------------------------------------||(both guitars)
|--11-11-11-11-11-11-11-11-11-11-11-11-11-11-11-11-11-11-11-11-11-11-11-11---||
|--8--8--8--8--8--8--8--8--9--9--9--9--9--9--9--9--9--9--9--9--9--9--9--9----||
|----------------------------------------------------------------------------||
| ||
| ||
| ||
|----------------------------------------------------------------------------||
|----------------------------------------------------------------------------||
|---------------------------------------------------------------------------*||(both guitars)
|--10--10--10--10--10--10--10--10--10--10--10--10--10--10--10--10-----------*||
|--8---8---8---8---8---8---8---8---7---7---7---7---7---7---7---7-------------||
|----------------------------------------------------------------------------||


[Rhy.Fig.1c]
|-----------------------------------------------------------------------|
|-----------------------------------------------------------------------|
|-----------------------------------------------------------------------|(Gtr.3)
|-----------------------------------------------------------------------|
|--8~---8-8-8-10-8-10-8-11~---8-8-8-10-8-10-11-10~---10-10-10-10-10-10--|
|-----------------------------------------------------------------------|
| |
| |
| |
|-----------------------------------------------------------------------|
|-----------------------------------------------------------------------|
|-----------------------------------------------------------------------|(Gtr.3)
|-----------------------------------------------------------------------|
|--11-10-9~----11_9-8~--------------------------------------------------|
|----------------p------------------------------------------------------|


Repeat Rhy.Fig.1b + 1c [2x]


[Solo 2] (Christopher Amott)
|---------------------------------------------------------|
|-------17-19-20----------20-19--------19b-17-------------|
|----16----------16--17----------14-16---------12--12-14--|
|---------------------------------------------------------|
|---------------------------------------------------------|
|---------------------------------------------------------|




|---------------------------------------------------------|
|---------------------------------------------------------|
|--14b-12_14_12-14---14fb~--------------------------------|
|--------h--p---------------------------------------------|
|---------------------------------------------------------|
|---------------------------------------------------------|




|---------------------------------------------------------|
|-----17-19-20-----------20-19--19-20-22--22fbr-20_22_20--|
|--------------16---17----------------------------h--p----|
|---------------------------------------------------------|
|---------------------------------------------------------|
|---------------------------------------------------------|




|---------------------------------------------------------|
|--22fb~---22fb-20_22_20----------------------------------|
|-----------------h--p---19-17-19~------------------------|
|---------------------------------------------------------|
|---------------------------------------------------------|
|---------------------------------------------------------|


[Ending]
|---------------|
|---------------|
|---------------|(both guitars)
|--10---9---9---|
|--7----6---7---|
|-----------0---|
(End!)