Stop Censorship
 
 

 
 1-9 a b c d e f g h i j k l m n o p q r s t u v w x y z
   Arch Enemy - Cosmic Retribution Tab    

ARCH ENEMY COSMIC RETRIBUTION
From the Album BLACK EARTH

Transcribed by: 220conibear

. - palm mute / - slide up to
- slide down to ~ - vibrato
h - hammer on b - bend
p - pull off Suffixes for bend
ph - pinch harmonic f - full bend h - half bend
* - see comment r - release t - tap bend
X - percussion mute ~ - vibrato bend
@ - slight palm mute () - ghost note, sustained note
" Tremolo note

Tune Down 2.5 steps to B

RIFF 1
|----------------------------------------------|
|----------------------------------------------|GTRS
|----------------------------------------------|1&2
|----------------------------------------------|
|----------------------------------------------|
|-0"---/7"---1"---/8"--0"---/7"---1"---/8"--7--|


RIFF 2
|----------------------------------------------------------------------|
|----------------------------------------------------------------------|GTRS
|----------------------------------------------------------------------|1&2
|----------------------------------------------------------------------|
|-----4H5-3H4-2H3----3H4-2H3-1H2---------------------------------------|
|-3"--------------1"--------------0"-4"-1"-4"3"--0"-4"-1"-4"3"-------|
. .

|----------------------------------------------------------------------|
|----------------------------------------------------------------------|GTRS
|----------------------------------------------------------------------|1&2
|----------------------------------------------------------------------|
|-----5H6-4H5-3H4----3H4-2H3-1H2---------------------------------------|
|-3"--------------1"--------------0"-4"-1"-4"3"--0"-4"-1"-4"3"-------|
. .

RIFF 3
|-----------------------------------------|
|-----------------------------------------|GTRS
|-----------------------------------------|1&2
|-----------------------------------------|
|-2---6---3---6--65---2---6---3---6--65-|
|-0---4---1---4--43---0---4---1---4--43-|


RIFF 4
|-------------------------------------------------|--------------|
|-------------------------------------------------|--------------|GTR
|-------------------------------------------------|--------------| 1
|-4~---5~-7-------------------------------7------|--4~---5---4--|
|-------------7-7-9h10-9h10p7-9-7---7-9-10---10-9-|--------------|
|-------------------------------------------------|--------------|
| . . . . . . |
| |
|-------------------------------------------------|--------------|
|-------------------------------------------------|--------------|GTR
|-------------------------------------------------|--------------| 2
|------------------------------------------7------|--------------|
|-5~---7~-----7-7-9h10-9h10p7-9-7---7-9-10---10-9-|--5~---7~-----|
|-------------------------------------------------|--------------|
. . . . . .


RIFF 5 These are 10`s not 1`s and 0`s
|----------------------------------------------------------------------|
|----------------------------------------------------------------------|GTRS
|----------------------------------------------------------------------|1&2
|----------------------------------------------------------------------|
|-----7----9----10------7----9----10-----7----9----10--*-----9------10-|
|-000---00---00-----888---88---88----000---00---00----101010---1010----|
... .. .. ... .. .. ... .. .. . . . . .

|---------|
|---------|
|---------|
|---------|
|------12-|
|-1010----|
. .


RIFF UNDER SOLO
|------------------------------------------------------------|
|------------------------------------------------------------|GTR
|------------------------------------------------------------| 2
|----9--11--12-----12--11--9------9--11--12-------14--12--11-|
|----7---9--10-----10---9--7------7---9--10-------12--10---9-|
|-00------------88------------00-------------1010------------|
.. .. .. . .

have any questions? email me at rhubeep@hotmail.com