Stop Censorship
 
 

 
 1-9 a b c d e f g h i j k l m n o p q r s t u v w x y z
   Arch Enemy - Enemy Whithin Tab    


This song is Drop C
Arch Enemy
Enemy Within (Wages of Sin)





Both guitars
]--------------------------------------------------------------------------------------------
]--------------------------------------------------------------------------------------------
]--------------------------------------------------------------------------------------------
]-------------------------------------------------------------------------------------------- 2x
]--------------------------------------------------------------------------------------------
]-----000--000--000--0000--000000-------000--000---000--0000---00000-------------------------
PM ... ... ... .... ...... ... ... ... .... .....

Guitar 1
]-----------------------------------------------------------------------------------------
]-----------------------------------------------------------------------------------------
]-----------------------------------------------------------------------------------------
]-----------------------------------------------------------------------------------------2x
]------------------------111--3333-----------------------111---3333-----------------------
]-----000--000---000---------------000---000---000----------------------------------------
PM ... ... ... ... .... ... ... ... ... ....

Guitar 2 (3x)
]------------------------------------------------------------------------------------------------
]--------------------------8---------------------------------------------8-----------------------
]-------10-------9----------------10--------9h10-------10---------9--------------10---------9h10-
]---777-----777------777-----777------777---------777--------777----777------777-------777-------
]------------------------------------------------------------------------------------------------
]------------------------------------------------------------------------------------------------
PM ... ... ... ... ... ... ... ... ... ...

Guitar 1 (2x)
]--------------------------------------------------------------------------------------------------------
]--------------------------------------------------------------------------------------------------------
]--------------------------------------------------------------------------------------------------------
]--------------------------------------------------------------------------------------------------------
]-------------------111111111111111-333333333333333333---------------------111111111111111-33333333333333
]-----0000000000000------------------------------------00000000000000000--------------------------------
PM


Guitar 2 (3x)
]------------------------------------------------------------------------------------------------
]--------------------------8---------------------------------------------8-----------------------
]-------10-------9----------------10--------9h10-------10---------9--------------10---------9h10-
]---777-----777------777-----777------777---------777--------777----777------777-------777-------
]------------------------------------------------------------------------------------------------
]------------------------------------------------------------------------------------------------
PM ... ... ... ... ... ... ... ... ... ...


Both Guitars
]----------------------------------------------------------------------------------------------
]----------------------------------------------------------------------------------------------
]----------------------------------------------------------------------------------------------
]---------------------------------------------------------------------------------------------- 8x
]-------5-------6-------8--------6--------5--------3---------1-------0-------------------------
]—----0?-----0?-------0?-----0?-------0?-------0?------0?-------0?------0? –5---0?--4-0?-------
. . . . . . . . . . .

]-------------------------------------------------------------------------------------------------
]-------------------------------------------------------------------------------------------------
]-------------------------------------------------------------------------------------------------
]---5----5-------5--------5--------4--------4---------4-------4--------5-------5------5--------5--
]---2----2-------2--------2--------2--------2---------2-------2--------2-------2------2--------2--
]-----00-----00------00------00--------00-------00-------00--------00-----00-----00------00-------
.. .. .. .. .. .. .. .. .. .. ..



---------------------------
---------------------------
---------------------------
----7--7----9---9-------- (2x)
----5--5----7---7--------
---------------------------


]----------------------------------------------------------------------------------------------
]----------------------------------------------------------------------------------------------
]----------------------------------------------------------------------------------------------
]---------------------------------------------------------------------------------------------- 8x
]-------5-------6-------8--------6--------5--------3---------1-------0-------------------------
]----—0?-----0?-------0?-----0?-------0?-------0?------0?-------0?------0? –5---0?--4-0?-------
. . . . . . . . . . .



]-------------------------------------------------------------------------------------------------
]-------------------------------------------------------------------------------------------------
]-------------------------------------------------------------------------------------------------
]---5----5-------5--------5--------4--------4---------4-------4--------5-------5------5--------5--
]---2----2-------2--------2--------2--------2---------2-------2--------2-------2------2--------2--
]-----00-----00------00------00--------00-------00-------00--------00-----00-----00------00-------
.. .. .. .. .. .. .. .. .. .. ..



---------------------------
---------------------------
---------------------------
----7--7----9---9-------- (2x)
----5--5----7---7--------
---------------------------

Guitar 1 (2x)
]--------------------------------------------------------------------------------------------------------
]--------------------------------------------------------------------------------------------------------
]--------------------------------------------------------------------------------------------------------
]--------------------------------------------------------------------------------------------------------
]-------------------111111111111111-333333333333333333---------------------111111111111111-33333333333333
]-----0000000000000------------------------------------00000000000000000--------------------------------
PM


Guitar 2 (3x)
]------------------------------------------------------------------------------------------------
]--------------------------8---------------------------------------------8-----------------------
]-------10-------9----------------10--------9h10-------10---------9--------------10---------9h10-
]---777-----777------777-----777------777---------777--------777----777------777-------777-------
]------------------------------------------------------------------------------------------------
]------------------------------------------------------------------------------------------------
PM ... ... ... ... ... ... ... ... ... ...


Sorry about the solo it was too fast to tab

]-------------------------------------------------------------------------------------------------
]-------------------------------------------------------------------------------------------------
]-------------------------------------------------------------------------------------------------
]---5----5-------5--------5--------4--------4---------4-------4--------5-------5------5--------5--
]---2----2-------2--------2--------2--------2---------2-------2--------2-------2------2--------2--
]-----00-----00------00------00--------00-------00-------00--------00-----00-----00------00-------
.. .. .. .. .. .. .. .. .. .. ..



---------------------------
---------------------------
---------------------------
----7--7----9---9-------- (4x)
----5--5----7---7--------
---------------------------

Guitar 1 (2x)
]--------------------------------------------------------------------------------------------------------
]--------------------------------------------------------------------------------------------------------
]--------------------------------------------------------------------------------------------------------
]--------------------------------------------------------------------------------------------------------
]-------------------111111111111111-333333333333333333---------------------111111111111111-33333333333333
]-----0000000000000------------------------------------00000000000000000--------------------------------
PM


Guitar 2 (3x)
]------------------------------------------------------------------------------------------------
]--------------------------8---------------------------------------------8-----------------------
]-------10-------9----------------10--------9h10-------10---------9--------------10---------9h10-
]---777-----777------777-----777------777---------777--------777----777------777-------777-------
]------------------------------------------------------------------------------------------------
]------------------------------------------------------------------------------------------------
PM ... ... ... ... ... ... ... ... ... ...

Both guitars
]-----------------------------------------------------------------------------
]-----------------------------------------------------------------------------
]-----------------------------------------------------------------------------
]---------------------------------------------------------------------0--x----
]---------------------------------------------------------------------0--x----
]-----000--000--000--0000--000000-------000--000---000--0000---00000--0--x----
PM ... ... ... .... ...... ... ... ... .... .....
Well that’s pretty much it. I think it sounds pretty good.
Chriscradlearch