Stop Censorship
 
 

 
 1-9 a b c d e f g h i j k l m n o p q r s t u v w x y z
   Arch Enemy - Exist To Exit Tab    

ARTIST: ARCH ENEMY
TITLE: EXIST TO EXIT
ALBUM: ANTHEMS OF REBELLION

THIS IS THE BASIC SONG STRUCTURE, HOWEVER, THERE ARE SOME PARTS THAT I AM NOT SURE ABOUT.
OPEN C TUNING (C-F-Bb-Eb-G-C). THE SAME NOTES ARE USED THROUGHOUT THE ENTIRE SONG, IT SHOULD
BE PRETTY EASY TO GET THE REST, WITH THE EXCEPTION OF THE SOLO.


c |-------------------|
G |-------------------|
Eb|-------------------|
Bb|---2--3--5--6--5p3-|
F |--2--2--2--2--2----|
C |-0--0--0--0--0-----|

-|------------------------------------------------------------------------------------------------------------------------|
-|------------------------------------------------------------------------------------------------------------------------|
-|------------------------------------------------------------------------------------------------------------------------|
-|-------------------------7-6--------------------------------------------------------------------------------------------|
-|---5-7-8---5-7-8---5-7-8-----8-7---5-7-8---5-7-8---------8-7-------5-7-8---5-7-8-7h9p7-7-6-7-6-------5-7-8---5-7-8-8--7-|
-|-0-------0-------0---------------0-------0-------5-6-7-8-----7-5-0-------0---------------------8-7-0-------0-------6--5-|
PM . . . . . . . . .

-|------------------------------------|
-|------------------------------------|
-|------------------------------------|
-|------------------------------------|
-|-----7-----8-----10-----11-----10-8-|
-|-0-0---0-0---0-0-- -0-0-- -0-0-- ---|
PM . . . . . . . . . .