Stop Censorship
 
 

 
 1-9 a b c d e f g h i j k l m n o p q r s t u v w x y z
   Arch Enemy - Marching On A Dead End Road Tab    

Artist: Arch Enemy
Song: Marching on a Dead End Road
Album: Anthems of Rebellion `03
Tabbed by: Corey Salts (imsaltytoo@msn.com)

This is the whole song, and it is one of the greatest songs on this cd. Enjoy.

Tuning Standard (E A D G B E)

Legend:
x = muted string
b = bend
p = pull off
h = hammer on
= slide


Guitar 1
|---------0-----------0-----------0-----------0-----------0-----------0------------0------------0--|
|---6-----------6-----------6-----------6-----------6-----------6-----------6------------6---------|
|------7-----------7-----------7-----------7-----------7-----------7-----------7------------7------|
|0-----------0-----------0-----------0-----------0-----------0-----------0------------0------------|
|--------------------------------------------------------------------------------------------------|
|--------------------------------------------------------------------------------------------------|

Guitar 2
|--------------------------------x-13---12---13b---------------------12-13-12b--12-10h12p10--------|
|-------------------------------x------------------------------------------------------------13-10-|
|------------------------------x-------------------------------------------------------------------|
|-----------------------------x--------------------------------------------------------------------|
|--------------------------------------------------------------------------------------------------|
|--------------------------------------------------------------------------------------------------|

Guitar 1
|---------0-----------0-----------0-----------0-----------0-----------0------------0------------0--|
|---6-----------6-----------6-----------6-----------6-----------6-----------12------------12-------|
|------3-----------3-----------3-----------3-----------3-----------3-----------11------------11----|
|0-----------0-----------0-----------0-----------0-----------0-----------0------------0------------|
|--------------------------------------------------------------------------------------------------|
|--------------------------------------------------------------------------------------------------|

Guitar 2
|--------------------------------------------------------------------------------------------------|
|13b--------------------11-10-----------------------------8--6----------------------------------x--|
|-----------------------------12b-----------------------9--------------------------------------x---|
|---------------------------------------------------------------------------------------------x----|
|--------------------------------------------------------------------------------------------------|
|--------------------------------------------------------------------------------------------------|


Guitar 1
|---------0-----------0-----------0-----------0--|
|---6-----------6-----------6-----------6--------|
|------7-----------7-----------7-----------7-----|
|0-----------0-----------0-----------0-----------|
|------------------------------------------------|
|------------------------------------------------|

Guitar 2
|10-8-------8-----------------------------------------------------------|
|-----11-10---11-10-8-11-10-8----10-8-6---8-6-----6-------------------x-|
|-----------------------------10--------9-----9-7---9-7----7b--------x--|
|-------------------------------------------------------10----------x---|
|-----------------------------------------------------------------------|
|-----------------------------------------------------------------------|

Guitar 1
|---------0-----------0-----------0-----------0--|
|---6-----------6-----------6-----------6--------|
|------7-----------7-----------7-----------7-----|
|0-----------0-----------0-----------0-----------|
|------------------------------------------------|
|------------------------------------------------|

Guitar 2
|10-8-------8-------------------------------------------------|
|-----11-10---11-10-8-11-10-8----10-8-6---8-6-----6-----------|
|-----------------------------10--------9-----9-7---9-7----7b-|
|-------------------------------------------------------10----|
|-------------------------------------------------------------|
|-------------------------------------------------------------|

Guitar 3
|13-12-10----12-10-------10-------10-------------------------------------------------|
|---------13-------13-11----13-11----13-11-10-13-11-10----11-10-------10-------------|
|------------------------------------------------------12-------12-10----12-10-9-10b-|
|------------------------------------------------------------------------------------|
|------------------------------------------------------------------------------------|
|------------------------------------------------------------------------------------|

Guitar 1
|---------0-----------0-----------0-----------0-----|
|---6-----------6-----------6-----------6-----------|
|------3-----------3-----------3-----------3--------|
|0-----------0-----------0-----------0--------------|
|---------------------------------------------------|
|---------------------------------------------------|

Guitar 2
|------6---8--/10---10p8--10b--|
|----6-------------------------|
|--8---------------------------|
|8-----------------------------|
|------------------------------|
|------------------------------|

Guitar 1
|---------0-----------0------------0------------0--|
|---6-----------6-----------12------------12-------|
|------3-----------3-----------11------------11----|
|0-----------0-----------0------------0------------|
|--------------------------------------------------|
|--------------------------------------------------|

Guitar 2
|--------8--10---10h12b------------9--10-12-10-12-12-13-13|
|------8------------------------10------------------------|
|---10-----------------------12---------------------------|
|10-----------------------12------------------------------|
|---------------------------------------------------------|
|---------------------------------------------------------|

Guitar 1
|-----------------------------------------------------------------|
|-----------------------------------------------------------------|
|-----------------------------------------------------------------|
|--5---3---5---3-5---3---5---3----5---3---5---3---5---3---5---3---|
|5---5---5---5-----5---5---5----5---5---5---5---5---5---5---5---5-|
|-----------------------------------------------------------------|

Guitar 2
|--3-1---0h1--------------------------1/3-1---0-1-----0h1-------------|
|------3-----3-1--3--0--1--0h1p0------------3-----3-------3---1---1---|
|2-------------------------------0--2---------------2-------2---0---0-|
|---------------------------------------------------------------------|
|---------------------------------------------------------------------|
|---------------------------------------------------------------------|

Guitar 1
|----------------------------------------------------------------|
|----------------------------------------------------------------|
|----------------------------------------------------------------|
|--3---3---3---3---3---3---3---3---5---3---5---3---7---7---7---7-|
|1---1---1---1---1---1---1---1---5---5---5---5---4---4---4---4---|
|----------------------------------------------------------------|

Guitar 2
|--3-1---0h1------------------------1/3-1---0h1------0--3-------------|
|------3-----3-1--3--0--1-0h1p0-----------3-----3-3--2----2-------2---|
|-------------------------------0-2------------------2------2---2---2-|
|-------------------------------------------------------------0-------|
|1--------------------------------------------------------------------|
|---------------------------------------------------------------------|

Guitar 1
|-----------------------------------------------------------------|
|-----------------------------------------------------------------|
|-----------------------------------------------------------------|
|--5---3---5---3-5---3---5---3----5---3---5---3---5---3---5---3---|
|5---5---5---5-----5---5---5----5---5---5---5---5---5---5---5---5-|
|-----------------------------------------------------------------|

Guitar 2
|--3-1---0h1--------------------------1/3-1---0-1-----0h1-------------|
|------3-----3-1--3--0--1--0h1p0------------3-----3-------3---1---1---|
|2-------------------------------0--2---------------2-------2---0---0-|
|---------------------------------------------------------------------|
|---------------------------------------------------------------------|
|---------------------------------------------------------------------|

Guitar 1
|----------------------------------------------------------------|
|----------------------------------------------------------------|
|----------------------------------------------------------------|
|--3---3---3---3---3---3---3---3---5---3---5---3---7---7---7---7-|
|1---1---1---1---1---1---1---1---5---5---5---5---4---4---4---4---|
|----------------------------------------------------------------|

Guitar 2
|--3-1---0h1------------------------1/3-1---0h1------0--3-------------|
|------3-----3-1--3--0--1-0h1p0-----------3-----3-3--2----2-------2---|
|-------------------------------0-2------------------2------2---2---2-|
|-------------------------------------------------------------0-------|
|1--------------------------------------------------------------------|
|---------------------------------------------------------------------|

|--------|
|1-------|
|3-------|
|2-------|
|0-------|
|--------|

The End. That was 2 hours worth of tabbing. You better f**king like it.