Stop Censorship
 
 

 
 1-9 a b c d e f g h i j k l m n o p q r s t u v w x y z
   Arch Enemy - Ravenous Tab    

ARCH ENEMY - RAVENOUS
From the Album WAGES OF SIN



Transcribed by: 220conibear



. - palm mute / - slide up to
- slide down to ~ - vibrato
h - hammer on b - bend
p - pull off Suffixes for bend
ph - pinch harmonic f - full bend h - half bend
* - see comment r - release t - tap bend
X - percussion mute ~ - vibrato bend
@ - slight palm mute () - ghost note, sustained note

Tune Gtr to C

RAVENOUS

Riff A
|-------------------------------------------------------------------|
|-------------------------------------------------------------------|
|-------------------------------------------------------------------|Gtrs
|-10p7----10p7----10p7----10p7----10p7-10p7----10p7-10p7----10p7----|I&II
|------77------77------77------77-----------77-----------77------77-|
|-------------------------------------------------------------------|
| .. .. .. .. .. .. ..
|
|-------------------------------------------------------------------|
|-------------------------------------------------------------------|
|-------------------------------------------------------------------|Gtrs
|-11p9----11p9----11p9----11p9----11p9-11p9----11p9-11p9----11p9----|I&II
|------99------99------99------99-----------99-----------99------99-|
|-------------------------------------------------------------------|
| .. .. .. .. .. .. ..
|
|-------------------------------------------------------------------------|
|-------------------------------------------------------------------------|
|-------------------------------------------------------------------------|Gtrs
|-12p10------12p10------12p10------12p10------13p11-13p11------13p11------|I&II
|-------1010-------1010-------1010-------1010-------------1111-------1111-|
|-------------------------------------------------------------------------|
| . . . . . . . . . . . .
|
|-------------------------------------------------------|
|---------------------------------------------15b~------|
|-------------------------------------------------------|Gtrs
|-14p12------15p13------16p14------17p15----------------|I&II
|-------1212-------1313-------1414-------1515-----------|
|-------------------------------------------------------|
. . . . . . . .


Fill 1
|-----|
|-----|
|-----|Gtrs
|-----|I&II
|-----|
|-/x-|


Riff B
|--------------------------------------------------------------|
|--------------------------------------------------------------|
|----1413----9/10----1413----9/10---9/10----1413----9/10----|Gtrs
|--------------------------------------------------------------|I&II
|----1211----7/8-----1211----7/8----7/8-----1211----7/8-----|
|-0"-------0"------0"-------0"-----0"------0"-------0"------0"-|
| . . . . . . . .
|
| B.1
|-------------------|----------------------------------------------|
|-------------------|----------------------------------------------|
|-7/9----5/7----4/5-|----1413----910----1413----9/10----9/10----|Gtrs
|-------------------|----------------------------------------------|I&II
|-5/7----3/5----2/3-|----1211----78-----1211----7/8-----7/8-----|
|-----0"-----0"-----|-0"-------0"------0"-------0"------0"------0"-|
| . . . . . . . .
|
|-----------------*5"----------|
|--------------------*5"-------|
|-1413----910-7-------*5"----|Gtrs
|--------------------------*5"-|I&II
|-1211----78--5--------------|
|-------0"---------------------|
. |- - - - - - |


*Natural harmonics.


Riff B 2tx


Riff C 2tx
|---------------------------------------------------------|
|---------------------------------------------------------|
|---------------------------------------------------------|Gtr
|------------------------4----5-7--------4----------------| I
|-2------5-4-5-----7-----2----3-5-4--5---2----------------|
|-0------3-2-3-----5--------------2--3--------------------|
|
| 2tx
|--------8-7-8-10/12~---------7-5-7-*8/10-p 8 7 h 8 h 10~--|
|----------------------------------------------------------|
|-129------------------97--------------------------------|Gtr
|----------------------------------------------------------| II
|----------------------------------------------------------|
|----------------------------------------------------------|
|- - - - - - - - - |


*Pick note only once fret all other indicated notes without striking.


Riff B 1tx
Riff B.1 1tx
Riff B 2tx
Riff C 2tx


Riff D 4tx
|-------------------------------------------|
|----------------------5--------------------|
|------------------------5--------/9----7-7-|Gtrs
|-2---2----4---5-----------7-10---/10---9-9-|I&II
|-0---0-00-2-0-3-------------8--------------|
|-------------------------------------------|
.. . Let ring - - |


Riff B 1tx
Riff B.1 1tx
Riff B 2tx
Riff C 2tx
Riff D 4tx


Riff E (clean - let ring throughout) 4tx
|-------5-(5)--------5-(5)--------5-----------0-(0)--|
|-----5------------3------------3---3-------6--------|
|---7------------5------------5-------5---5----------|Gtrs
|-0------------0------------0-----------0------------|I&II
|----------------------------------------------------|
|----------------------------------------------------|
|
|E.1 3tx
|-----------------|---------|
|-----------------|---------|
|-----------------|-0-(0)---|Gtr
|-7-7-7-7-7-7-7-7-|-4-(4)---| I
|-5-5-5-5-5-5-5-5-|-5-(5)---|
|-----------------|---------|
| . . . . . . . .
| 1tx
|----------------------------------|
|----------------------------------|
|-/7-(7)---2-(2)---4-(4)---0-(0)---|Gtr
|--------------------------4-(4)---| II
|-/5-(5)---5-(5)---5-(5)---5-(5)---|
|----------------------------------|


Riff D 2tx
Riff A 1tx


Fill 2
|-----------|
|-----------|
|-----------|Gtrs
|-----------|I&II
|-2-3-4-5-7-|
|-0-1-2-3-5-|


Riff D 4tx


End
|--------------------------------------|
|-/13---12-12-------------------------|
|-/14---13-13-------------------------|Gtrs
|--------------2"--------(2)---------2-|I&II
|--------------0"--------(0)---------0-|
|--------------------------------------|

Any Questions email me at rhubeep@hotmail.com