Stop Censorship
 
 

 
 1-9 a b c d e f g h i j k l m n o p q r s t u v w x y z
   Arch Enemy - Saints And Sinners Tab    

SAINTS AND SINNERS
As recorded by Arch Enemy
(From the 2003 Album ANTHEMS OF REBELLION)



Music by Michael Amott


Intro
Q=140
$
N.C. Em
4/4
Gtr I
PM| PM PM PM PM PM| PM PM PM|
||----------------------------------|----------------------------------||
||o---------------------------------|---------------------------------o||
||----------------------------------|----------------------------------||
||----------------------------------|----------------------------------||
||o-----5h7---5h7---5h7---5h7---5h7-|-----5h7---5h7---5h7-----7-7-7-7-o||
||--0-0-----0-----0-----0-----0-----|-0-0-----0-----0-----0-0----------||
|
| Gtr II
| PM| PM PM PM PM PM| PM PM PM|
||----------------------------------|----------------------------------||
||o---------------------------------|---------------------------------o||
||----------------------------------|----------------------------------||
||----------------------------------|-------------------------5-5-5-5--||
||o-----5h7---5h7---5h7---5h7---5h7-|-----5h7---5h7---5h7-----7-7-7-7-o||
||--0-0-----0-----0-----0-----0-----|-0-0-----0-----0-----0-0----------||


N.C. Em
PM| PM PM PM PM PM| PM PM PM|
||----------------------------------|-----------------------------------||
||o---------------------------------|----------------------------------o||
||----------------------------------|-----------------------------------||
||----------------------------------|-----------------------------------||
||o-----5h7---5h7---5h7---5h7---5h7-|-----5h7---5h7---5h7-----7-7-7-7--o||
||--0-0-----0-----0-----0-----0-----|-0-0-----0-----0-----0-0-----------||
|
| PM| PM PM PM PM PM| PM PM PM|
||----------------------------------|-----------------------------------||
||o---------------------------------|----------------------------------o||
||----------------------------------|-----------------------------------||
||------4h5---4h5---4h5---4h5---4h5-|-----4h5---4h5---4h5-----5-5-5-5---||
||o---------------------------------|-------------------------7-7-7-7--o||
||--0-0-----0-----0-----0-----0-----|-0-0-----0-----0-----0-0-----------||


Verse
Q=90
Bb5 E5
PM--------------------------------------------|
|-------------------------------------------------|------|
|-------------------------------------------------|------|
|-------------------------------------------------|------|
|-------------------------------------------------|-2----|
|-------------------------------------------------|-2----|
|-6-6-6-6-6-6-6-6-6-6-6-6-6-6-6-6-6-6-6-6-6-6-6-6-|-0----|
|
| PM--------------------------------------------|
|-------------------------------------------------|------|
|-------------------------------------------------|------|
|-------------------------------------------------|------|
|-------------------------------------------------|-2----|
|-------------------------------------------------|-2----|
|-6-6-6-6-6-6-6-6-6-6-6-6-6-6-6-6-6-6-6-6-6-6-6-6-|-0----|


Bb5 G#m Gm Em
PM--------------------------------------|
|---------------------------------------------|--------------|
|---------------------------------------------|--------------|
|---------------------------------------------|--------------|
|-------------------------------------------9-|-8------------|
|---------------------------------------------|-----10-10----|
|-6-6-6-6-6-6-6-6-6-6-6-6-6-6-6-6-6-6-6-6-6---|--------------|
|
| PM--------------------------------------|
|---------------------------------------------|--------------|
|---------------------------------------------|--------------|
|---------------------------------------------|--------------|
|-------------------------------------------6-|-5------------|
|---------------------------------------------|------7--7----|
|-6-6-6-6-6-6-6-6-6-6-6-6-6-6-6-6-6-6-6-6-6---|--------------|


Bb5 E5
PM--------------------------------------------|
|-------------------------------------------------|------|
|-------------------------------------------------|------|
|-------------------------------------------------|------|
|-------------------------------------------------|-2----|
|-------------------------------------------------|-2----|
|-6-6-6-6-6-6-6-6-6-6-6-6-6-6-6-6-6-6-6-6-6-6-6-6-|-0----|
|
| PM--------------------------------------------|
|-------------------------------------------------|------|
|-------------------------------------------------|------|
|-------------------------------------------------|------|
|-------------------------------------------------|-2----|
|-------------------------------------------------|-2----|
|-6-6-6-6-6-6-6-6-6-6-6-6-6-6-6-6-6-6-6-6-6-6-6-6-|-0----|


D.S.
Bb5 E5
PM---------------------------------------------------------------------|
|-------------------------------------------------|--------------------------|
|-------------------------------------------------|--------------------------|
|-------------------------------------------------|--------------------------|
|-------------------------------------------------|-2-2-2-2-2-2--2-2-2-2-2---|
|-------------------------------------------------|-2-2-2-2-2-2--2-2-2-2-2---|
|-6-6-6-6-6-6-6-6-6-6-6-6-6-6-6-6-6-6-6-6-6-6-6-6-|-0-0-0-0-0-0--0-0-0-0-0---|
|
| PM---------------------------------------------------------------------|
|-------------------------------------------------|--------------------------|
|-------------------------------------------------|--------------------------|
|-------------------------------------------------|--------------------------|
|-------------------------------------------------|-2-2-2-2-2-2--2-2-2-2-2---|
|-------------------------------------------------|-2-2-2-2-2-2--2-2-2-2-2---|
|-6-6-6-6-6-6-6-6-6-6-6-6-6-6-6-6-6-6-6-6-6-6-6-6-|-0-0-0-0-0-0--0-0-0-0-0---|


Chorus
Q=100
E5 Eb5 D5 C5D5G5 F5
Gtrs I, II
PM| PM| PM----------| PM|
4x
||--------------------------|------------------------||
||o-------------------------|-----------------------o||
||------9-9-----8-8---------|-----7-7-----5-7-12-10--||
||------9-9-----8-8---------|-----7-7-----5-7-12-10--||
||o-----7-7-----6-6---------|-----5-5-----3-5-10--8-o||
||--0-0-----0-0-----0-0-0-0-|-0-0-----0-0------------||


Interlude
G Em G F#m D F#m
Gtr II
|-------------------|---------------|-------------------|---------------|
|-------------------|---------------|-------------------|---------------|
|-16--12-12-(12)----|-(12)-------16-|-14--11-11-(11)----|-(11)-------14-|
|-------------------|---------------|-------------------|---------------|
|-------------------|---------------|-------------------|---------------|
|-------------------|---------------|-------------------|---------------|
|
| Gtr I
|-------------------|---------------|-------------------|---------------|
|-------------------|---------------|-------------------|---------------|
|-------------------|---------------|-------------------|---------------|
|-17--14-14-(14)----|-(14)-------17-|-16--12-12-(12)----|-(12)-------16-|
|-------------------|---------------|-------------------|---------------|
|-------------------|---------------|-------------------|---------------|


Em C Em
|-------------------|---------------|
|-------------------|---------------|
|-12---9--9--(9)----|--(9)-------12-|
|-------------------|---------------|
|-------------------|---------------|
|-------------------|---------------|
|
|-------------------|---------------|
|-------------------|---------------|
|-------------------|---------------|
|-14--10-10-(10)----|-(10)-------14-|
|-------------------|---------------|
|-------------------|---------------|
|
| Gtr III
|-------------------|---------------|
|-------------------|---------------|
|-------------------|---------------|
|-------------------|---------------|
|-------------------|---------------|
|-------------------|---------------|


D B
|----------------|-------------------------------|
|----------------|-------------------------------|
|-11--8-8-(8)----|-(8)---------------------------|
|----------------|-------------------------------|
|----------------|-------------------------------|
|----------------|-------------------------------|
|
|----------------|-------------------------------|
|----------------|-------------------------------|
|----------------|-------------------------------|
|-12--9-9-(9)----|-(9)---------------------------|
|----------------|-------------------------------|
|----------------|-------------------------------|
|
|----------------|-22b24----22-20-19-20-19-------|
|----------------|-------------------------22---|
|----------------|-------------------------------|
|----------------|-------------------------------|
|----------------|-------------------------------|
|----------------|-------------------------------|


G Em G F#m D
|-------------------|---------------|--------------------------------|
|-------------------|---------------|--------------------------------|
|-16--12-12-(12)----|-(12)-------16-|-14--11-11-(11)-----------------|
|-------------------|---------------|--------------------------------|
|-------------------|---------------|--------------------------------|
|-------------------|---------------|--------------------------------|
|
|-------------------|---------------|--------------------------------|
|-------------------|---------------|--------------------------------|
|-------------------|---------------|--------------------------------|
|-17--14-14-(14)----|-(14)-------17-|-16--12-12-(12)-----------------|
|-------------------|---------------|--------------------------------|
|-------------------|---------------|--------------------------------|
|
|-------------------|---------------|----------------/20-17-20-15-20-|
|-15--12-12-(12)----|-(12)-------15-|-13--10-10----------------------|
|-------------------|---------------|--------------------------------|
|-------------------|---------------|--------------------------------|
|-------------------|---------------|--------------------------------|
|-------------------|---------------|--------------------------------|


F#m
|------------------------------------------|
|------------------------------------------|
|-(11)--------------------------------14---|
|------------------------------------------|
|------------------------------------------|
|------------------------------------------|
|
|------------------------------------------|
|------------------------------------------|
|------------------------------------------|
|-(12)--------------------------------16---|
|------------------------------------------|
|------------------------------------------|
|
|------20----20----20----20----------------|
|--19-----17-------------------------------|
|---------------19----17----16tr17---(16)-|
|------------------------------------------|
|------------------------------------------|
|------------------------------------------|


Em C Em D B
|-------------------|---------------|----------------|--------|
|-------------------|---------------|----------------|--------|
|-12---9--9--(9)----|--(9)-------12-|-11--8-8-(8)----|-(8)----|
|-------------------|---------------|----------------|--------|
|-------------------|---------------|----------------|--------|
|-------------------|---------------|----------------|--------|
|
|-------------------|---------------|----------------|--------|
|-------------------|---------------|----------------|--------|
|-------------------|---------------|----------------|--------|
|-14--10-10-(10)----|-(10)-------14-|-12--9-9-(9)----|-(9)----|
|-------------------|---------------|----------------|--------|
|-------------------|---------------|----------------|--------|
|
|-------------------|---------------|----------------|--------|
|-12---8--8--(8)----|--(8)-------12-|-10--7-7-(7)----|-(7)----|
|-------------------|---------------|----------------|--------|
|-------------------|---------------|----------------|--------|
|-------------------|---------------|----------------|--------|
|-------------------|---------------|----------------|--------|


Guitar Solo
Q=140
N.C.
Gtrs I, II
PM| PM PM PM PM
|----------------------------------------|
|----------------------------------------|
|----------------------------------------|
|----------------------------------------|
|-----5h7---5h7----5h=7-----5h7------5h7-|
|-0-0-----0-----0-------0-------0--------|
|
| Gtr III
| ~
|----------------------------------------|
|----------------------------------------|
|-9---------------(9)-----9-------11-----|
|----------------------------------------|
|----------------------------------------|
|----------------------------------------|
|
| Gtr IV
|----------------------------------------|
|----------------------------------------|
|----------------------------------------|
|----------------------------------------|
|----------------------------------------|
|----------------------------------------|


Em
PM---| PM PM PM|
|------------------------------------------------------------|
|------------------------------------------------------------|
|------------------------------------------------------------|
|------------------------------------------(5)-(5)-(5)-(5)---|
|---------5h7------5h=7-----------5h=7------7---7---7---7----|
|--0----0-------0----------0-----------0-0-------------------|
|
| ~~~~
|------------------------------------------------------------|
|------------------------------------------------------------|
|-12b14r======(12)---12p11h==12-(12)-------------------------|
|------------------------------------------------------------|
|------------------------------------------------------------|
|------------------------------------------------------------|
|
|------------------------------------------------------------|
|------------------------------------------------------------|
|------------------------------------------------------------|
|------------------------------------------------------------|
|------------------------------------------------------------|
|------------------------------------------------------------|


PM| PM PM PM PM
|-------------------------------------------------|
|-------------------------------------------------|
|-------------------------------------------------|
|-------------------------------------------------|
|--------5h=7-----5h=7-----5h=7-----5h=7-----5h=7-|
|--0--0--------0--------0--------0--------0-------|
|
|-------------------------------------------------|
|-------------------------------------------------|
|-------------------------------------------------|
|-------------------------------------------------|
|-------------------------------------------------|
|-------------------------------------------------|
|
|-------------------------------------------------|
|-20-17-------17----------------------------------|
|-------18-15----18-15----18-15-------15----------|
|----------------------17-------17-14----17-14----|
|----------------------------------------------16-|
|-------------------------------------------------|


PM| PM PM PM|
|--------------------------------------------------|
|--------------------------------------------------|
|--------------------------------------------------|
|----------------------------------(5)-(5)-(5)-(5)-|
|--------5h=7-----5h=7-----5h7------7---7---7---7--|
|--0--0--------0--------0------0-0-----------------|
|
|--------------------------------------------------|
|--------------------------------------------------|
|--------------------------------------------------|
|--------------------------------------------------|
|--------------------------------------------------|
|--------------------------------------------------|
|
| ~~~
|--------------------------------------------------|
|--------------------------------------------------|
|--------------------------------------------------|
|-17-14-------14-----------------------------------|
|-------16-13----16-13-----------------------------|
|----------------------15-12-----------------------|


PM| PM PM PM PM
|--------------------------------------------|
|--------------------------------------------|
|--------------------------------------------|
|-------4h5---4h5-----4h=5------4h5------4h5-|
|-------5h7---5h7-----5h=7------5h7------5h7-|
|---0-0-----0-----0--------0--------0--------|
|
| ~~~
|--------------------------------------------|
|-/17---------------(17)-----17-------19-----|
|--------------------------------------------|
|--------------------------------------------|
|--------------------------------------------|
|--------------------------------------------|
|
|--------------------------------------------|
|--------------------------------------------|
|--------------------------------------------|
|--------------------------------------------|
|--------------------------------------------|
|--------------------------------------------|


PM---| PM PM PM|
|------------------------------------------------|
|------------------------------------------------|
|------------------------------------------------|
|---------4h5---4h5----4h=5------(5)-(5)-(5)-(5)-|
|---------5h7---5h7----5h=7-------7---7---7---7--|
|--0----0-----0-----0--------0-0-----------------|
|
|------------------------------------------------|
|-20b22---------------20p19-17-------------------|
|------------------------------------------------|
|------------------------------------------------|
|------------------------------------------------|
|------------------------------------------------|
|
|------------------------------------------------|
|------------------------------------------------|
|------------------------------------------------|
|------------------------------------------------|
|------------------------------------------------|
|------------------------------------------------|


PM-| PM PM PM PM
|---------------------------------------------------|
|---------------------------------------------------|
|---------------------------------------------------|
|----------4h=5-----4h=5-----4h=5-----4h=5-----4h=5-|
|----------5h=7-----5h=7-----5h=7-----5h=7-----5h=7-|
|---0---0--------0--------0--------0--------0-------|
|
| >
|---------------------------------------------------|
|-(17)----------------------------------------------|
|---------------------------------------------------|
|---------------------------------------------------|
|---------------------------------------------------|
|---------------------------------------------------|
|
|--15--------------------14-13-------------------12-|
|------14-------------13-------12-------------11----|
|---------17-------16-------------15-------14-------|
|------------16-15-------------------14-13----------|
|---------------------------------------------------|
|---------------------------------------------------|


PM-| PM PM PM|
|----------------------------------------------------|
|----------------------------------------------------|
|----------------------------------------------------|
|----------4h=5-----4h5----4h5-------(5)-(5)-(5)-(5)-|
|----------5h=7-----5h7----5h7--------7---7---7---7--|
|---0---0--------0-------0------0--0-----------------|
|
|----------------------------------------------------|
|-(17)-----------------------------------------------|
|----------------------------------------------------|
|----------------------------------------------------|
|----------------------------------------------------|
|----------------------------------------------------|
|
|--11-------------------10-9----------------------8--|
|------10-------------9------8----------------7------|
|---------13-------12----------11--------10----------|
|------------12-11----------------10--9--------------|
|----------------------------------------------------|
|----------------------------------------------------|


Verse
Q=90
Bb5 E5
Gtr I
PM--------------------------------------------|
|-------------------------------------------------|--------|
|-------------------------------------------------|--------|
|-------------------------------------------------|--------|
|-------------------------------------------------|--2-----|
|-------------------------------------------------|--2-----|
|-6-6-6-6-6-6-6-6-6-6-6-6-6-6-6-6-6-6-6-6-6-6-6-6-|--0-----|
|
| Gtr II
| PM--------------------------------------------|
|-------------------------------------------------|--------|
|-------------------------------------------------|--------|
|-------------------------------------------------|--------|
|-------------------------------------------------|--2-----|
|-------------------------------------------------|--2-----|
|-6-6-6-6-6-6-6-6-6-6-6-6-6-6-6-6-6-6-6-6-6-6-6-6-|--0-----|
|
| >
|-7-----------------------------------------------|-(7)----|
|-------------------------------------------------|--------|
|-------------------------------------------------|--------|
|-------------------------------------------------|--------|
|-------------------------------------------------|--------|
|-------------------------------------------------|--------|


Bb5 G#m Gm Em
PM--------------------------------------|
|---------------------------------------------|--------------|
|---------------------------------------------|--------------|
|---------------------------------------------|--------------|
|-------------------------------------------9-|-8------------|
|---------------------------------------------|-----10-10----|
|-6-6-6-6-6-6-6-6-6-6-6-6-6-6-6-6-6-6-6-6-6---|--------------|
|
| PM--------------------------------------|
|---------------------------------------------|--------------|
|---------------------------------------------|--------------|
|---------------------------------------------|--------------|
|-------------------------------------------6-|-5------------|
|---------------------------------------------|------7--7----|
|-6-6-6-6-6-6-6-6-6-6-6-6-6-6-6-6-6-6-6-6-6---|--------------|


Bb5 E5
PM--------------------------------------------|
|-------------------------------------------------|------|
|-------------------------------------------------|------|
|-------------------------------------------------|------|
|-------------------------------------------------|-2----|
|-------------------------------------------------|-2----|
|-6-6-6-6-6-6-6-6-6-6-6-6-6-6-6-6-6-6-6-6-6-6-6-6-|-0----|
|
| PM--------------------------------------------|
|-------------------------------------------------|------|
|-------------------------------------------------|------|
|-------------------------------------------------|------|
|-------------------------------------------------|-2----|
|-------------------------------------------------|-2----|
|-6-6-6-6-6-6-6-6-6-6-6-6-6-6-6-6-6-6-6-6-6-6-6-6-|-0----|


Bb5 E5
PM---------------------------------------------------------------------|
|-------------------------------------------------|--------------------------|
|-------------------------------------------------|--------------------------|
|-------------------------------------------------|--------------------------|
|-------------------------------------------------|-2-2-2-2-2-2--2-2-2-2-2---|
|-------------------------------------------------|-2-2-2-2-2-2--2-2-2-2-2---|
|-6-6-6-6-6-6-6-6-6-6-6-6-6-6-6-6-6-6-6-6-6-6-6-6-|-0-0-0-0-0-0--0-0-0-0-0---|
|
| PM---------------------------------------------------------------------|
|-------------------------------------------------|--------------------------|
|-------------------------------------------------|--------------------------|
|-------------------------------------------------|--------------------------|
|-------------------------------------------------|-2-2-2-2-2-2--2-2-2-2-2---|
|-------------------------------------------------|-2-2-2-2-2-2--2-2-2-2-2---|
|-6-6-6-6-6-6-6-6-6-6-6-6-6-6-6-6-6-6-6-6-6-6-6-6-|-0-0-0-0-0-0--0-0-0-0-0---|


Chorus
Q=100
E5 Eb5 D5 C5D5G5 F5
Gtrs I, II
PM| PM| PM----------| PM|
4x
||--------------------------|------------------------||
||o-------------------------|-----------------------o||
||------9-9-----8-8---------|-----7-7-----5-7-12-10--||
||------9-9-----8-8---------|-----7-7-----5-7-12-10--||
||o-----7-7-----6-6---------|-----5-5-----3-5-10--8-o||
||--0-0-----0-0-----0-0-0-0-|-0-0-----0-0------------||


Bridge
E5 C5 A5 B5 E5 C5 A5 B5
|---------------|---------------|---------------|---------------|
|---------------|---------------|---------------|---------------|
|-9----5--------|-2-------4--4--|-9----5--------|-2-------4--4--|
|-9----5--------|-2-------4--4--|-9----5--------|-2-------4--4--|
|-7----3--------|-0-------2--2--|-7----3--------|-0-------2--2--|
|---------------|---------------|---------------|---------------|
|
| Gtr III
|---------------|---------------|---------------|---------------|
|---------------|---------------|---------------|---------------|
|---------------|---------------|---------------|---------------|
|---------------|----7----------|---------------|----7----------|
|-7----7-9-10-7-|-7----10----9--|-7----7-9-10-7-|-7----10----9--|
|---------------|---------------|---------------|---------------|
|
| Gtr IV
|---------------|---------------|---------------|---------------|
|---------------|---------------|---------------|---------------|
|---------------|---------------|---------------|---------------|
|---------------|----7----------|---------------|----7----------|
|-7----7-9-10-7-|-7----10----9--|-7----7-9-10-7-|-7----10----9--|
|---------------|---------------|---------------|---------------|


E5 C5 A5 B5 E5 C5 A5 B5
|---------------|---------------|---------------|---------------|
|---------------|---------------|---------------|---------------|
|-9----5--------|-2-------4--4--|-9----5--------|-2-------4--4--|
|-9----5--------|-2-------4--4--|-9----5--------|-2-------4--4--|
|-7----3--------|-0-------2--2--|-7----3--------|-0-------2--2--|
|---------------|---------------|---------------|---------------|
|
|---------------|---------------|---------------|---------------|
|---------------|---------------|---------------|---------------|
|---------------|---------------|---------------|---------------|
|---------------|----7----------|---------------|----7----------|
|-7----7-9-10-7-|-7----10----9--|-7----7-9-10-7-|-7----10----9--|
|---------------|---------------|---------------|---------------|
|
|---------------|---------------|---------------|---------------|
|---------------|---------------|---------------|---------------|
|---------------|----5----------|---------------|----5----------|
|-5----5-7--9-5-|-5-----9----7--|-5----5-7--9-5-|-5-----9----7--|
|---------------|---------------|---------------|---------------|
|---------------|---------------|---------------|---------------|


E5 Eb5 D5 C5D5G5 F5
Gtrs I, II
PM| PM| PM----------| PM|
4x
||--------------------------|------------------------||
||o-------------------------|-----------------------o||
||------9-9-----8-8---------|-----7-7-----5-7-12-10--||
||------9-9-----8-8---------|-----7-7-----5-7-12-10--||
||o-----7-7-----6-6---------|-----5-5-----3-5-10--8-o||
||--0-0-----0-0-----0-0-0-0-|-0-0-----0-0------------||


Out-Chorus
E5 Eb5
4/4
PM----| PM-----------------
|------------------------------------------------------------|
|------------------------------------------------------------|
|---9------9----------------8------8-------------------------|
|---9------9----------------8------8-------------------------|
|---7------7----------------6------6-------------------------|
|------------------0-----0-----------------0-----0---0-----0-|
|
| Gtrs III, IV
|------------------------------------------------------------|
|--12b13r(12)b13r(12)b13r==11b12r(11)b12r(11)b12r==(11)b12r==|
|------------------------------------------------------------|
|------------------------------------------------------------|
|------------------------------------------------------------|
|------------------------------------------------------------|


D5 C5 D5 G5 F5
---------| PM----|
|----------------------------------------------------------|
|----------------------------------------------------------|
|------------7------7---------------5----7----12----10-----|
|------------7------7---------------5----7----12----10-----|
|------------5------5---------------3----5----10-----8-----|
|---0-----0-----------------0-----0------------------------|
|
|----------------------------------------------------------|
|-(11)b12r==10b11r(10)b11r(10)b11r==8b9r(8)b9r(8)b9r(8)b9r=|
|----------------------------------------------------------|
|----------------------------------------------------------|
|----------------------------------------------------------|
|----------------------------------------------------------|


E5 Eb5
PM---| PM----| PM-----------------
||--------------------------------------------------------------------|
||o-------------------------------------------------------------------|
||-----------9------9----------------8------8-------------------------|
||-----------9------9----------------8------8-------------------------|
||o----------7------7----------------6------6-------------------------|
||---0----0-----------------0-----0-----------------0-----0---0-----0-|
|
||--------------------------------------------------------------------|
||o-(8)b9r==12b13r(12)b13r(12)b13r==11b12r(11)b12r(11)b12r==(11)b12r==|
||--------------------------------------------------------------------|
||--------------------------------------------------------------------|
||o-------------------------------------------------------------------|
||--------------------------------------------------------------------|


D5 C5 D5 G5 F5
---------| PM----|
3x
|-----------------------------------------------------------||
|----------------------------------------------------------o||
|------------7------7---------------5----7----12----10------||
|------------7------7---------------5----7----12----10------||
|------------5------5---------------3----5----10-----8-----o||
|---0-----0-----------------0-----0-------------------------||
|
| 3x
|-----------------------------------------------------------||
|-(11)b12r==10b11r(10)b11r(10)b11r==8b9r(8)b9r(8)b9r(8)b9r=o||
|-----------------------------------------------------------||
|-----------------------------------------------------------||
|----------------------------------------------------------o||
|-----------------------------------------------------------||


Outro
N.C.
Gtrs III, IV
||------------------------------------------------------------|
||o-(8)b9r12b13r(12)b13r(12)b13r11b12r(11)b12r(11)b12r(11)b12r|
||------------------------------------------------------------|
||------------------------------------------------------------|
||o-----------------------------------------------------------|
||------------------------------------------------------------|


4x
|-------------------------------------------------------||
|-(11)b12r10b11r(10)b11r(10)b11r8b9r(8)b9r(8)b9r(8)b9r=o||
|-------------------------------------------------------||
|-------------------------------------------------------||
|------------------------------------------------------o||
|-------------------------------------------------------||