Stop Censorship
 
 

 
 1-9 a b c d e f g h i j k l m n o p q r s t u v w x y z
   Arch Enemy - Seeds Of Hate Tab    

|------------------------------------------------|--------------------|
|------------------------------------------------|--------------------|
|-2------5-7----4----0--1010-9-97755-------------|-7/9-9/12-12/16-16~-|
|-2------7-7----5----2--121210109977-9----10-----|--------------------|
|-0-0-00-----00---00-----------------8-88--8-----|-5/7-7/10-10/14-14~-|
|--------------------------------------------x--|--------------------|

|-----------------|---------|
|-----------------|---------|
|-------------9~~-|-2--(2)--|
|-------7799-10~~-|-2--(2)--|
|-557788----------|-0--(0)--|
|-----------------|---------|

|--------------------------0-----|
|-------0--------0-------0---0---|
|-----5--------5-----------------|
|---7--------7--------7----------|
|-0--------8--------5------------|
|--------------------------------|

|-------------------|----------|-------|------------------|
|-------------------|----------|-------|------------------|
|-------------12-12-|-12/14-14-|-------|------------------|
|-9-9--12-12--12-12-|-12/14-14-|-------|-1616121214141212-|
|-9-9--12-12--10-10-|-10/12-12-|-12-12-|-1717141416161414-|
|-7-7--10-10--------|----------|-10-9--|------------------|

|-------------------------------------|-------------------------------|
|-------------------------------------|-------------------------------|
|-191919-18-16-14-16~-----------------|---11-9------------------------|
|---------------------16-14-12-14-16~-|-9------12-11-11/129~-7/97~~-|
|-171717-16-14-12-14~-----------------|---9--7------------------------|
|---------------------14-12-10-12-14~-|-7------10-9--9-/107~-5/75~~-|

|----------------------------------------|
|----------------------------------------|
|-2----4----5---------7----------2-(2)---|
|-2----5----5----3----7----5-----2-(2)---|
|-0----2----3----3----5----5-----0-(0)---|
|---0----0----0--1--0---0--3--0----------|

|-----------------------------------------------|
|-----------------------------------------------|
|-----------------------------------------------|
|-----------------------------------------------|
|-0"----2"----3"----------5"----------0"--------|
|-------------------1"----------3"--------------|

|-----|
|-----|
|-----|
|-7-2-|
|-5-0-|
|-----|

luv u all
666goth666
XXXXXXXXXXXXXXXXXXXXXXX