Stop Censorship
 
 

 
 1-9 a b c d e f g h i j k l m n o p q r s t u v w x y z
   Arch Enemy - Snow Bound Tab    

Arch Enemy
Snow Bound (Wages of Sin)
This Song is Drop C


Guitar 1 plays this in the background over and over.

]---------0----------------------------------------
]---------3---------------------3------------------
]---2---2---2---2---2---2-----2--------------------
]-0---3-------3---0---3-----0----------------------
]-------------------------3------------------------
]--------------------------------------------------

Guitar 2
]-------------------------------------------------
]-------------------------------------------------
]-13-11-10----------13-11-10----------13-11-10----
]----------10----------------10----------------10-
]-------------------------------------------------
]-------------------------------------------------

---------------------|
---------------------|
-12-10-9-7-9-10h9h7--|
---------------------|
---------------------|
---------------------|

]--------------------------13----------------
]-13-11-10--------13-11-10-------13-11-10----
]----------10-----------------------------10-
]--------------------------------------------
]--------------------------------------------
]--------------------------------------------

--------------------|
-12-10-9-7-9-10h9h7-|
--------------------|
--------------------|
--------------------|
--------------------|

]----------------15-13-12-13----------------
]-10-11-13-13h15-------------13-13h15-13-15-
]-------------------------------------------
]-------------------------------------------
]-------------------------------------------
]-------------------------------------------

]------------------------------------
]------------------------------------
]-12*-14*-15h14h12-12*-14*-15h14-12*-
]------------------------------------
]------------------------------------
]------------------------------------

]---------------------------13---------------13-
]-13-11-10---------13-11-10---------13-11-10----
]----------10-----------------------------------
]-----------------------------------------------
]-----------------------------------------------
]-----------------------------------------------

------------------------|
-7-9-10h9h7-9h7h9h7h9h7-|
------------------------|
------------------------|
------------------------|
------------------------|

And thats it!!! its pretty simple, but its is fun to play.
C.B