Stop Censorship
 
 

 
 1-9 a b c d e f g h i j k l m n o p q r s t u v w x y z
   Arch Enemy - Snow Bound Tab    

Band: Arch Enemy
Song: Snow Bound
Album: Wages Of Sin
Tuning: Standard (high to low: e-B-G-D-A-E)
Transcriber: Josh Guittard
Date: 11/26/2003
*updated* 11/30/2003


Use slight distortion throughout, its alot of fun to play
when you get the timing right, and its just a really neat
song period. Simple, maybe, but still kew. Also, for some fun,
you can add some wah. but not too much else ull kill it :D

Forgot to add a key for those that need it :/

h= Hammer-on b= Bend half or 1 whole step (either one works)
p= Pull-off *= note
/= slide up = slide down

|---------------------|
|---11--9-8-----------|
|-----------8---------| 2x
|---------------------|
|---------------------|
|---------------------|

|-------------------------------|
|--11-9-8-----------------------|
|---------8-8h10p8-75h7b-5h7p5-|
|-------------------------------|
|-------------------------------|
|-------------------------------|

|------------13-11-10-10h11p10-----------------------
|-8-9--11-13------------------11-11h13p11h13b--------
|---------------------------------------------8h10b-8
|----------------------------------------------------
|----------------------------------------------------
|----------------------------------------------------

----------------------------------------------------|
----------------------------------------------------|
-8h10-8-10br-10br-10p8---8--------------------------|
----------------------10---10-----------------------|
------------------------------8-6-8b-8b-8p6---------|
--------------------------------------------8-------|

|------------------|
|--11-9-8----------|
|---------8--------| x1
|------------------|
|------------------|
|------------------|

|------------------|
|-11-9-8-----------|
|-x-----8*---------|
|-x----------------|
|------------------|
|------------------|

*hold the 8, and with your picking hand, strike a natural harmonic
over the 19th fret on the same string (g/3rd)

|-------------------------------|
|--11-9-8-----------------------|
|---------8-8h10p8-75h7b-5h7p5-|
|-------------------------------|
|-------------------------------|
|-------------------------------|

|------------------|
|--11-9-8----------|
|---------8--------| x3
|------------------|
|------------------|
|------------------|

|----------------------------------------|
|--11-9-8--------------------------------|
|---------8-8h10p8h10p8-7-5-7b-5h7p5h7*--|
|----------------------------------------|
|----------------------------------------|
|----------------------------------------|

*basically for this just hammer on and pull off at a pretty fast
rate until ur hand cant take it, or u decide it sounds cool enough.

Thats basically it, if you would like to comment on this, ty, help is appreciated
ill try and get the back ground part but the chords are giving me a hard time.
You can catch me here at my email address: woccixelsyd@hotmail.com, MSN messenger as well, or, AIM at ihavblupubes. That is all, thank you.