Stop Censorship
 
 

 
 1-9 a b c d e f g h i j k l m n o p q r s t u v w x y z
   Arch Enemy - The Immortal Tab    

Lead guitar
Riff 1
|------------------------------------------|
|------------------------------------------|
|------------------------------------------|
|------10-8~------8-6~---------------------|
|---/7---------/7--------/7-10-8~----------|
|-0----------0---------0----------5-8-6-1~-|




Riff 2
|----------------------------------------------------------------------|
|----------------------------------------------------------------------|
|----------------------------------------------------------------------|
|--------10-9---------------------------------10-9---------------------|
|-7----------------8-7-----------------7-------------------------------|
|---0000------0000-----0000-6-7-000000---0000------3-2-0000-2-1-000000-|
.... .... .... ...... .... .... ......



Refrain
|-------------------------------------------|
|---13---10-/-12---10-----------------------|
|-----------------------11-/-12---9-/-11-8~-|
|---10---7--/-9----7------------------------|
|-----------------------9--/-10---7-/-9--6~-|
|-0----0---------0----0---------0-----------|
. . . . .



Solo Rhythm
1. 2. 3.
|-----------------------------------|-------|--------------|
|-----------------------------------|-------|--------------|
|-----------------------------------|---5---|-9-7-5--5-7-9-|
|-5-------5-------5--------75-10-7-|-3-5-1-|-9-7-5--5-7-9-|
|-3-00000-3-00000-3-000000-53--8-5-|-3-3-2-|-7-5-3--3-5-7-|
|-----------------------------------|-1-----|--------------|
..... ..... ......



4. 5.
|----------------|----------------|
|----------------|----------------|
|-10-8-6--6-8-10-|-11-9-7--7-9-11-|
|-10-8-6--6-8-10-|-11-9-7--7-9-11-|
|-8--6-4--4-6--8-|-9--7-5--5-7--9-|
|----------------|----------------|





Rhythm guitar
Riff 1
|----------------------------------------------|
|----------------------------------------------|
|----------------------------------------------|
|-2-----2-----2-----2-----2-----2--------------|
|-2-----2-----2-----2-----2-----2--------------|
|-0-000-0-000-0-000-0-000-0-000-0-000-55886611-|
... ... ... ... ... ... ........




Refrain 1.
|------------------------------------------------------------------|
|------------------------------------------------------------------|
|------------------------------------------------------------------|
|------------------------------------------------------------------|
|------------------------------------------------------------------|
|-0000000000000000111111111111111122222222222222221111111111111111-|
................................................................




2.
|------------------------------------|
|------------------------------------|
|-9----------8----------7----------6-|
|-9----------9----------9----------7-|
|-7----------6----------5----------4-|
|------------------------------------|



Song structure:

Riff 1: 4x
Riff 2: 6x
Refrain 1.: 1x
Refrain 2.: 1x
Riff 1: 2x
Riff 2: 4x
Refrain 1.: 1x
Refrain 2.: 1x
Solo rhythm
1.: 2x
2.: 1x
1.: 2x
2.: 1x
3.: 2x
4.: 2x
5.: 2x
Refrain 1.: 1x
Refrain 2.: 1x
Riff 1: 2x

I haven`t figured out the solo yet, but when iv`e got it you`ll be the first to know!