Stop Censorship
 
 

 
 1-9 a b c d e f g h i j k l m n o p q r s t u v w x y z
   Arch Enemy - We Will Rise Tab    

WE WILL RISE
Arch Enemy
(From the 2003 Album ANTHEMS OF REBELLION)


Transcribed by Jesse Rubio

G#
x 11 x 13 x x A
x 12 x 14 x x G
x 10 x 12 x x E
x 7 x 9 x x
F#
x 9 x 11 x x Eb
x 6 x 8 x x



Intro
Q=114
G#
4/4
Gtr I
||--------------------------------------------------|
||o-------------------------------------------------|
||--13-13-13-13-13-13-13-13-13-13-13-13-13-13-13-13-|
||---x--x--x--x--x--x--x--x--x--x--x--x--x--x--x--x-|
||o-11-11-11-11-11-11-11-11-11-11-11-11-11-11-11-11-|
||--------------------------------------------------|
|
| Gtr II
||--------------------------------------------------|
||o-------------------------------------------------|
||--------------------------------------------------|
||---2--2--2--2--2--2--2--2--2--2--2--2--2--2--2--2-|
||o--x--x--x--x--x--x--x--x--x--x--x--x--x--x--x--x-|
||---0--0--0--0--0--0--0--0--0--0--0--0--0--0--0--0-|


A G
|-------------------------------------------------|
|-------------------------------------------------|
|-14-14-14-14-14-14-14-14-12-12-12-12-12-12-12-12-|
|--x--x--x--x--x--x--x--x--x--x--x--x--x--x--x--x-|
|-12-12-12-12-12-12-12-12-10-10-10-10-10-10-10-10-|
|-------------------------------------------------|
|
|-------------------------------------------------|
|-------------------------------------------------|
|--5--5--5--5--5--5--5--5--5--5--5--5--5--5--5--5-|
|--x--x--x--x--x--x--x--x--x--x--x--x--x--x--x--x-|
|--3--3--3--3--3--3--3--3--3--3--3--3--3--3--3--3-|
|-------------------------------------------------|


E F# D#
3x
|---------------------------------|-----------------------------------||
|---------------------------------|----------------------------------o||
|-9-9-9-9-9-9-9-9-9-9-9-9-9-9-9-9-|-9-9-9-9-9-9-9-11-8-8-8-8-8-8-8-8--||
|-x-x-x-x-x-x-x-x-x-x-x-x-x-x-x-x-|-x-x-x-x-x-x-x--x-x-x-x-x-x-x-x-x--||
|-7-7-7-7-7-7-7-7-7-7-7-7-7-7-7-7-|-7-7-7-7-7-7-7--9-6-6-6-6-6-6-6-6-o||
|---------------------------------|-----------------------------------||
|
| 3x
|---------------------------------|-----------------------------------||
|---------------------------------|----------------------------------o||
|-2-2-2-2-2-2-2-2-2-2-2-2-2-2-2-2-|-4-4-4-4-4-4-4--4-4-4-4-4-4-4-4-4--||
|-x-x-x-x-x-x-x-x-x-x-x-x-x-x-x-x-|-x-x-x-x-x-x-x--x-x-x-x-x-x-x-x-x--||
|-0-0-0-0-0-0-0-0-0-0-0-0-0-0-0-0-|-2-2-2-2-2-2-2--2-2-2-2-2-2-2-2-2-o||
|---------------------------------|-----------------------------------||


Verse
$
E
Gtrs I, II
>
|----------|------------|--------|
|----------|------------|--------|
|-9--------|-(9)--------|-(9)----|
|----------|------------|--------|
|-7--------|-(7)--------|-(7)----|
|----------|------------|--------|


Gtr V
|------------|-------------|-20----------|
|------------|-17----20----|-------17----|
|-(9)--------|-------------|-------------|
|------------|-------------|-------------|
|-(7)--------|-------------|-------------|
|------------|-------------|-------------|


Asus4
Gtrs I, II
|-17----------|--------------------|
|-------20----|-17-----------------|
|-------------|--------------------|
|-------------|--------------------|
|-------------|-------17------5h7-|
|-------------|-------17--5h7-----|


Pre-Chorus
F5 E5 G5 F5
PM PM PM--| PM PM PM PM PM--| PM
|---------------------------------|-----------------------------|
|---------------------------------|-----------------------------|
|---------------------------------|-----------------------------|
|---------------------------------|-----------------------------|
|---5---2-------3---2---0-----5h7-|---8---5-------5---3-----5h7-|
|-0---0---0-0-0-1-1-0-0---5h7-----|-0---0---0-0-0-3-0-1-5h7-----|


F5 E5 G5 F5
PM PM PM--| PM PM PM PM PM--|
|-------------------------------------|--------------------------|
|-------------------------------------|--------------------------|
|-------------------------------------|--------------------------|
|-------------------------------------|--------------------------|
|----5---2--------3----2---0------5h7-|----8---5--------5----3---|
|--0---0----0-0-0-1--1-0-0----5h7-----|--0---0----0-0-0-3----1---|
|
| Gtr V Gtrs V, VI
|-24-------24-------24-------24-------|-24-------24-------24-----|
|-------------------------------------|--------------------------|
|-21-------21-------21-------21-------|-21-------21-------21-----|
|-------------------------------------|--------------------------|
|-------------------------------------|--------------------------|
|-------------------------------------|--------------------------|


TP TP
|----------------|----------------|
|----------------|----------------|
|----------------|----------------|
|----------------|----------------|
|------------5h8-|------------5h8-|
|-0------5h7-----|-0------5h7-----|


TP TP
|----------------|-----------|
|----------------|-----------|
|----------------|-----------|
|----------------|-----------|
|------------5h8-|------2----|
|-0------5h7-----|-0----0----|


Chorus
G#
4/4
Gtr I
||--------------------------------------------------|
||o-------------------------------------------------|
||--13-13-13-13-13-13-13-13-13-13-13-13-13-13-13-13-|
||---x--x--x--x--x--x--x--x--x--x--x--x--x--x--x--x-|
||o-11-11-11-11-11-11-11-11-11-11-11-11-11-11-11-11-|
||--------------------------------------------------|
|
| Gtr II
||--------------------------------------------------|
||o-------------------------------------------------|
||--------------------------------------------------|
||---2--2--2--2--2--2--2--2--2--2--2--2--2--2--2--2-|
||o--x--x--x--x--x--x--x--x--x--x--x--x--x--x--x--x-|
||---0--0--0--0--0--0--0--0--0--0--0--0--0--0--0--0-|


A G
|-------------------------------------------------|
|-------------------------------------------------|
|-14-14-14-14-14-14-14-14-12-12-12-12-12-12-12-12-|
|--x--x--x--x--x--x--x--x--x--x--x--x--x--x--x--x-|
|-12-12-12-12-12-12-12-12-10-10-10-10-10-10-10-10-|
|-------------------------------------------------|
|
|-------------------------------------------------|
|-------------------------------------------------|
|--5--5--5--5--5--5--5--5--5--5--5--5--5--5--5--5-|
|--x--x--x--x--x--x--x--x--x--x--x--x--x--x--x--x-|
|--3--3--3--3--3--3--3--3--3--3--3--3--3--3--3--3-|
|-------------------------------------------------|


D.S.
E F# D#
|---------------------------------|-----------------------------------||
|---------------------------------|----------------------------------o||
|-9-9-9-9-9-9-9-9-9-9-9-9-9-9-9-9-|-9-9-9-9-9-9-9-11-8-8-8-8-8-8-8-8--||
|-x-x-x-x-x-x-x-x-x-x-x-x-x-x-x-x-|-x-x-x-x-x-x-x--x-x-x-x-x-x-x-x-x--||
|-7-7-7-7-7-7-7-7-7-7-7-7-7-7-7-7-|-7-7-7-7-7-7-7--9-6-6-6-6-6-6-6-6-o||
|---------------------------------|-----------------------------------||
|
|---------------------------------|-----------------------------------||
|---------------------------------|----------------------------------o||
|-2-2-2-2-2-2-2-2-2-2-2-2-2-2-2-2-|-4-4-4-4-4-4-4--4-4-4-4-4-4-4-4-4--||
|-x-x-x-x-x-x-x-x-x-x-x-x-x-x-x-x-|-x-x-x-x-x-x-x--x-x-x-x-x-x-x-x-x--||
|-0-0-0-0-0-0-0-0-0-0-0-0-0-0-0-0-|-2-2-2-2-2-2-2--2-2-2-2-2-2-2-2-2-o||
|---------------------------------|-----------------------------------||


Guitar Solo
G5 D#5
Gtr III
|---------------------|----------------|
|----------13----11---|--------10---8--|
|---------------------|----------------|
|----12-13------------|---8-10---------|
|-10------------------|-6--------------|
|---------------------|----------------|
|
| Gtrs I, II
|---------------------|----------------|
|---------------------|----------------|
|---------------------|----------------|
|-12------------(12)S=|=8--------------|
|-10------------(10)S=|=6--------------|
|---------------------|----------------|


F5 D5 F5
|-------------------|-----------------------|
|----------11---10--|-11-10----11-10tr11----|
|-------------------|-------12--------------|
|----10-12----------|-----------------------|
|--8----------------|-----------------------|
|-------------------|-----------------------|
|
|-------------------|-----------------------|
|-------------------|-----------------------|
|-------------------|-----------------------|
|-10----------------|--7----------10--------|
|--8----------------|--5-----------8--------|
|-------------------|-----------------------|


G5 D#5
|--------------------------------|---------------------------|
|----------13-(13)b15r(13)--11---|--------10-(10)b12r(10)-8--|
|--------------------------------|---------------------------|
|----12-13-----------------------|---8-10--------------------|
|-10-----------------------------|-6-------------------------|
|--------------------------------|---------------------------|
|
|--------------------------------|---------------------------|
|--------------------------------|---------------------------|
|--------------------------------|---------------------------|
|-12-----------------------(12)S=|=8-------------------------|
|-10-----------------------(10)S=|=6-------------------------|
|--------------------------------|---------------------------|


F5 D5 F5
|-------------------|-18-15-17-18-17-15-18-15-17-18-17-15-|
|----------11---10--|-------------------------------------|
|-------------------|-------------------------------------|
|----10-12----------|-------------------------------------|
|--8----------------|-------------------------------------|
|-------------------|-------------------------------------|
|
|-------------------|-------------------------------------|
|-------------------|-------------------------------------|
|-------------------|-------------------------------------|
|-10----------------|--7----------------10----------------|
|--8----------------|--5-----------------8----------------|
|-------------------|-------------------------------------|


E
~~~~~~~~~~~~~~~~~~~~~~~~~~~~~~
|-[19]---------------([19])----------------------|
|------------------------------12---15---15b17====|
|-------------------------------------------------|
|-------------------------------------------------|
|-------------------------------------------------|
|-------------------------------------------------|
|
| Gtr I
|-------------------------------------------------|
|-------------------------------------------------|
|---9--9-9-9-9-9-9-9----9----9--9-9--9-9--9-----9-|
|---x--x-x-x-x-x-x-x----x----x--x-x--x-x--x-----x-|
|---7--7-7-7-7-7-7-7----7----7--7-7--7-7--7-----7-|
|-------------------------------------------------|
|
| Gtr II
|-------------------------------------------------|
|-------------------------------------------------|
|---9--9-9-9-9-9-9-9----9----9--9-9--9-9--9-----9-|
|---x--x-x-x-x-x-x-x----x----x--x-x--x-x--x-----x-|
|---7--7-7-7-7-7-7-7----7----7--7-7--7-7--7-----7-|
|-------------------------------------------------|


F#
~~~~
|----------------------------------------------------------|
|-(15)----------------------(15)r----12----15----15b17=====|
|----------------------------------------------------------|
|----------------------------------------------------------|
|----------------------------------------------------------|
|----------------------------------------------------------|
|
|----------------------------------------------------------|
|----------------------------------------------------------|
|--11--11-11-11-11-11-11-11--11---11-11-11-11-11-11-----11-|
|---x---x--x--x--x--x--x--x---x----x--x--x--x--x--x------x-|
|---9---9--9--9--9--9--9--9---9----9--9--9--9--9--9------9-|
|----------------------------------------------------------|
|
|----------------------------------------------------------|
|----------------------------------------------------------|
|---7---7--7--7--7--7--7--7---7----7--7--7--7--7--7------7-|
|---x---x--x--x--x--x--x--x---x----x--x--x--x--x--x------x-|
|---5---5--5--5--5--5--5--5---5----5--5--5--5--5--5------5-|
|----------------------------------------------------------|


G
~~~~~
|----------------------------------------15----14----|
|-(15)r----------------------------------------------|
|----------------------------------------------------|
|----------------------------------------------------|
|----------------------------------------------------|
|----------------------------------------------------|
|
|----------------------------------------------------|
|----------------------------------------------------|
|--12---12-12-12-12-12-12-12-12-12-12-12-12-12-12-12-|
|---x----x--x--x--x--x--x--x--x--x--x--x--x--x--x--x-|
|--10---10-10-10-10-10-10-10-10-10-10-10-10-10-10-10-|
|----------------------------------------------------|
|
|----------------------------------------------------|
|----------------------------------------------------|
|---5----5--5--5--5--5--5--5--5--5--5--5--5--5--5--5-|
|---x----x--x--x--x--x--x--x--x--x--x--x--x--x--x--x-|
|---3----3--3--3--3--3--3--3--3--3--3--3--3--3--3--3-|
|----------------------------------------------------|


A B
|-(14)----------------------(14)----------------------|
|-----------------------------------12----15----------|
|-----------------------------------------------------|
|-----------------------------------------------------|
|-----------------------------------------------------|
|-----------------------------------------------------|
|
|-----------------------------------------------------|
|-----------------------------------------------------|
|--14--14-14-14-14-14-14-14--16--16-16-16-16-16-16-16-|
|---x---x--x--x--x--x--x--x---x---x--x--x--x--x--x--x-|
|--12--12-12-12-12-12-12-12--14--14-14-14-14-14-14-14-|
|-----------------------------------------------------|
|
|-----------------------------------------------------|
|-----------------------------------------------------|
|---4---4--4--4--4--4--4--4---4---4--4--4--4--4--4--4-|
|---x---x--x--x--x--x--x--x---x---x--x--x--x--x--x--x-|
|---2---2--2--2--2--2--2--2---2---2--2--2--2--2--2--2-|
|-----------------------------------------------------|


E
Gtr IV
|----------12--------------12----------12----------12----------12--------|
|-15b17-------15b17==(15)r----15b17-------15b17-------15b17-------15b17==|
|------------------------------------------------------------------------|
|------------------------------------------------------------------------|
|------------------------------------------------------------------------|
|------------------------------------------------------------------------|
|
|------------------------------------------------------------------------|
|-17----17-17-17------17---17-17----17-17-17----17-17-17----17-17-17-----|
|--x-----x--x--x-------x----x--x-----x--x--x-----x--x--x-----x--x--x-----|
|-14----14-14-14------14---14-14----14-14-14----14-14-14----14-14-14-----|
|------------------------------------------------------------------------|
|------------------------------------------------------------------------|
|
|------------------------------------------------------------------------|
|------------------------------------------------------------------------|
|--9-----9--9--9-------9----9--9-----9--9--9-----9--9--9-----9--9--9-----|
|--x-----x--x--x-------x----x--x-----x--x--x-----x--x--x-----x--x--x-----|
|--7-----7--7--7-------7----7--7-----7--7--7-----7--7--7-----7--7--7-----|
|------------------------------------------------------------------------|


C
|-------12----------12----------12----------12--------------12----------|
|-(15)r----15b17-------15b17-------15b17-------15b17==(15)r----15b17----|
|-----------------------------------------------------------------------|
|-----------------------------------------------------------------------|
|-----------------------------------------------------------------------|
|-----------------------------------------------------------------------|
|
|-----------------------------------------------------------------------|
|--13---13-13----13-13-13----13-13-13----13-13-13------13---13-13----13-|
|---x----x--x-----x--x--x-----x--x--x-----x--x--x-------x----x--x-----x-|
|--10---10-10----10-10-10----10-10-10----10-10-10------10---10-10----10-|
|-----------------------------------------------------------------------|
|-----------------------------------------------------------------------|
|
|-----------------------------------------------------------------------|
|-----------------------------------------------------------------------|
|---5----5--5-----5--5--5-----5--5--5-----5--5--5-------5----5--5-----5-|
|---x----x--x-----x--x--x-----x--x--x-----x--x--x-------x----x--x-----x-|
|---3----3--3-----3--3--3-----3--3--3-----3--3--3-------3----3--3-----3-|
|-----------------------------------------------------------------------|


D
|-12----12-17p12-------12-17p12-------12-17----12----12-17p12----12----17p12-------12-15-17-|
|----15----------15----------------15-------------15----------15-------------15-------------|
|-------------------------------------------------------------------------------------------|
|-------------------------------------------------------------------------------------------|
|-------------------------------------------------------------------------------------------|
|-------------------------------------------------------------------------------------------|
|
|-------------------------------------------------------------------------------------------|
|-15----15----15----15----15----15----15----15----15----15----15----15----15----15----15-15-|
|--x-----x-----x-----x-----x-----x-----x-----x-----x-----x-----x-----x-----x-----x-----x--x-|
|-12----12----12----12----12----12----12----12----12----12----12----12----12----12----12-12-|
|-------------------------------------------------------------------------------------------|
|-------------------------------------------------------------------------------------------|
|
|-------------------------------------------------------------------------------------------|
|-------------------------------------------------------------------------------------------|
|--7-----7-----7-----7-----7-----7-----7-----7-----7-----7-----7-----7-----7-----7-----7--7-|
|--x-----x-----x-----x-----x-----x-----x-----x-----x-----x-----x-----x-----x-----x-----x--x-|
|--5-----5-----5-----5-----5-----5-----5-----5-----5-----5-----5-----5-----5-----5-----5--5-|
|-------------------------------------------------------------------------------------------|


B D
|-17b19===========(17)r===(17)p===14-----------------------------|
|---------------------------------------15----12-----------------|
|------------------------------------------------12s11-----------|
|----------------------------------------------------------------|
|----------------------------------------------------------------|
|----------------------------------------------------------------|
|
|----------------------------------------------------------------|
|-12-----12-12-12--12--12------12----12-15-15-15-15-15-15-15-15--|
|--x------x--x--x---x---x-------x-----x--x--x--x--x--x--x--x--x--|
|--9------9--9--9---9---9-------9-----9-12-12-12-12-12-12-12-12--|
|----------------------------------------------------------------|
|----------------------------------------------------------------|
|
|----------------------------------------------------------------|
|----------------------------------------------------------------|
|--4------4--4--4---4---4-------4-----4--7--7--7--7--7--7--7--7--|
|--x------x--x--x---x---x-------x-----x--x--x--x--x--x--x--x--x--|
|--2------2--2--2---2---2-------2-----2--5--5--5--5--5--5--5--5--|
|----------------------------------------------------------------|


E Asus4
>
|--------------------------|-------------|-------------|-----------------------|
|------------10b11r10-8----|--(8)--------|--(8)--------|--(8)------------------|
|-(11)--(11)-11b12-11-9----|--(9)--------|--(9)--------|--(9)------------------|
|--------------------------|-------------|-------------|-----------------------|
|--------------------------|-------------|-------------|-----------------------|
|--------------------------|-------------|-------------|-----------------------|
|
| >
|--------------------------|-------------|-------------|-----------------------|
|--17----------------------|-(17)--------|-(17)--------|-(17)------------------|
|--------------------------|-------------|-------------|-----------------------|
|--14----------------------|-(14)--------|-(14)--------|-(14)------------------|
|--------------------------|-------------|-------------|---------17------5h7--|
|--------------------------|-------------|-------------|---------17--5h7------|
|
| >
|--------------------------|-------------|-------------|-----------------------|
|--------------------------|-------------|-------------|-----------------------|
|---9----------------------|--(9)--------|--(9)--------|--(9)------------------|
|--------------------------|-------------|-------------|-----------------------|
|---7----------------------|--(7)--------|--(7)--------|--(7)----17------5h7--|
|--------------------------|-------------|-------------|---------17--5h7------|


Pre-Chorus
F5 E5 G5 F5
Gtrs I, II
PM PM PM--| PM PM PM PM PM--| PM
|---------------------------------|-----------------------------|
|---------------------------------|-----------------------------|
|---------------------------------|-----------------------------|
|---------------------------------|-----------------------------|
|---5---2-------3---2---0-----5h7-|---8---5-------5---3-----5h7-|
|-0---0---0-0-0-1-1-0-0---5h7-----|-0---0---0-0-0-3-0-1-5h7-----|


F5 E5 G5F5
PM PM PM--| PM PM PM PM PM--|
|---------------------------------|----------------------|
|---------------------------------|----------------------|
|---------------------------------|----------------------|
|---------------------------------|----------------------|
|---5---2-------3---2---0-----5h7-|---8---5-------5-3----|
|-0---0---0-0-0-1-1-0-0---5h7-----|-0---0---0-0-0-3-1----|


Chorus
G#
4/4
Gtr I
||--------------------------------------------------|
||o-------------------------------------------------|
||--13-13-13-13-13-13-13-13-13-13-13-13-13-13-13-13-|
||---x--x--x--x--x--x--x--x--x--x--x--x--x--x--x--x-|
||o-11-11-11-11-11-11-11-11-11-11-11-11-11-11-11-11-|
||--------------------------------------------------|
|
| Gtr II
||--------------------------------------------------|
||o-------------------------------------------------|
||--------------------------------------------------|
||---2--2--2--2--2--2--2--2--2--2--2--2--2--2--2--2-|
||o--x--x--x--x--x--x--x--x--x--x--x--x--x--x--x--x-|
||---0--0--0--0--0--0--0--0--0--0--0--0--0--0--0--0-|


A G
|-------------------------------------------------|
|-------------------------------------------------|
|-14-14-14-14-14-14-14-14-12-12-12-12-12-12-12-12-|
|--x--x--x--x--x--x--x--x--x--x--x--x--x--x--x--x-|
|-12-12-12-12-12-12-12-12-10-10-10-10-10-10-10-10-|
|-------------------------------------------------|
|
|-------------------------------------------------|
|-------------------------------------------------|
|--5--5--5--5--5--5--5--5--5--5--5--5--5--5--5--5-|
|--x--x--x--x--x--x--x--x--x--x--x--x--x--x--x--x-|
|--3--3--3--3--3--3--3--3--3--3--3--3--3--3--3--3-|
|-------------------------------------------------|


E F# D#
4x
|---------------------------------|-----------------------------------||
|---------------------------------|----------------------------------o||
|-9-9-9-9-9-9-9-9-9-9-9-9-9-9-9-9-|-9-9-9-9-9-9-9-11-8-8-8-8-8-8-8-8--||
|-x-x-x-x-x-x-x-x-x-x-x-x-x-x-x-x-|-x-x-x-x-x-x-x--x-x-x-x-x-x-x-x-x--||
|-7-7-7-7-7-7-7-7-7-7-7-7-7-7-7-7-|-7-7-7-7-7-7-7--9-6-6-6-6-6-6-6-6-o||
|---------------------------------|-----------------------------------||
|
| 4x
|---------------------------------|-----------------------------------||
|---------------------------------|----------------------------------o||
|-2-2-2-2-2-2-2-2-2-2-2-2-2-2-2-2-|-4-4-4-4-4-4-4--4-4-4-4-4-4-4-4-4--||
|-x-x-x-x-x-x-x-x-x-x-x-x-x-x-x-x-|-x-x-x-x-x-x-x--x-x-x-x-x-x-x-x-x--||
|-0-0-0-0-0-0-0-0-0-0-0-0-0-0-0-0-|-2-2-2-2-2-2-2--2-2-2-2-2-2-2-2-2-o||
|---------------------------------|-----------------------------------||


Outro solo
G#
4/4
Gtr I
| | | | | | | | | | | | | | | |
/ / / / / / / / / / / / / / / /

Gtr III
|-------------------------------------------------|
|-------17-------17-------17-------17-------17----|
|-14-16----14-16----14-16----14-16----14-16----14-|
|-------------------------------------------------|
|-------------------------------------------------|
|-------------------------------------------------|
|
| Gtr II
|-------------------------------------------------|
|-------------------------------------------------|
|-------------------------------------------------|
|--2--2--2--2--2--2--2--2--2--2--2--2--2--2--2--2-|
|--x--x--x--x--x--x--x--x--x--x--x--x--x--x--x--x-|
|--0--0--0--0--0--0--0--0--0--0--0--0--0--0--0--0-|


A G
| | | | | | | | | | | | | | | |
/ / / / / / / / / / / / / / / /

|--------------------------------------------------|
|-------20-------20-------20-------20-------20-----|
|-16-17----16-17----16-17----16-17----16-17----16--|
|--------------------------------------------------|
|--------------------------------------------------|
|--------------------------------------------------|
|
|--------------------------------------------------|
|--------------------------------------------------|
|--5--5--5--5--5--5--5--5--5--5--5--5--5--5--5--5--|
|--x--x--x--x--x--x--x--x--x--x--x--x--x--x--x--x--|
|--3--3--3--3--3--3--3--3--3--3--3--3--3--3--3--3--|
|--------------------------------------------------|


E
| | | | | | | | | | | | | | | |
/ / / / / / / / / / / / / / / /

|-------------------------------------------------|
|-------22-------22-------22-------22-------22----|
|-17-21----17-21----17-21----17-21----17-21----17-|
|-------------------------------------------------|
|-------------------------------------------------|
|-------------------------------------------------|
|
|-------------------------------------------------|
|-------------------------------------------------|
|--2--2--2--2--2--2--2--2--2--2--2--2--2--2--2--2-|
|--x--x--x--x--x--x--x--x--x--x--x--x--x--x--x--x-|
|--0--0--0--0--0--0--0--0--0--0--0--0--0--0--0--0-|
|-------------------------------------------------|


F# Eb
| | | | | | | | | | | | | | | |
/ / / / / / / / / / / / / / / /

|-------------------------------------------------|
|-------24-------24-------24-------24-------24----|
|-21-23----21-23----21-23----21-23----21-23----21-|
|-------------------------------------------------|
|-------------------------------------------------|
|-------------------------------------------------|
|
|-------------------------------------------------|
|-------------------------------------------------|
|--4--4--4--4--4--4--4--4--4--4--4--4--4--4--4--4-|
|--x--x--x--x--x--x--x--x--x--x--x--x--x--x--x--x-|
|--2--2--2--2--2--2--2--2--2--2--2--2--2--2--2--2-|
|-------------------------------------------------|


G#
4/4
Gtr I
| | | | | | | | | | | | | | | |
/ / / / / / / / / / / / / / / /

Gtr IV
~~
|-------19-------17-------19----------------------|
|-15s17----17s15----15s17-------------------------|
|-------------------------------------------------|
|-------------------------------------------------|
|-------------------------------------------------|
|-------------------------------------------------|
|
| Gtr III
|-------------------------------------------------|
|-------17-------17-------17-------17-------17----|
|-14-16----14-16----14-16----14-16----14-16----14-|
|-------------------------------------------------|
|-------------------------------------------------|
|-------------------------------------------------|
|
| Gtr II
|-------------------------------------------------|
|-------------------------------------------------|
|-------------------------------------------------|
|--2--2--2--2--2--2--2--2--2--2--2--2--2--2--2--2-|
|--x--x--x--x--x--x--x--x--x--x--x--x--x--x--x--x-|
|--0--0--0--0--0--0--0--0--0--0--0--0--0--0--0--0-|


A G
| | | | | | | | | | | | | | | |
/ / / / / / / / / / / / / / / /

~~
|-------22-------22-------22-----------------------|
|-19s20----20s19----19s20--------------------------|
|--------------------------------------------------|
|--------------------------------------------------|
|--------------------------------------------------|
|--------------------------------------------------|
|
|--------------------------------------------------|
|-------20-------20-------20-------20-------20-----|
|-16-17----16-17----16-17----16-17----16-17----16--|
|--------------------------------------------------|
|--------------------------------------------------|
|--------------------------------------------------|
|
|--------------------------------------------------|
|--------------------------------------------------|
|--5--5--5--5--5--5--5--5--5--5--5--5--5--5--5--5--|
|--x--x--x--x--x--x--x--x--x--x--x--x--x--x--x--x--|
|--3--3--3--3--3--3--3--3--3--3--3--3--3--3--3--3--|
|--------------------------------------------------|


E
| | | | | | | | | | | | | | | |
/ / / / / / / / / / / / / / / /

TP
|-22b24===========22----------------------------------|
|-----------------------------------------------------|
|-----------------------------------------------------|
|-----------------------------------------------------|
|-----------------------------------------------------|
|-----------------------------------------------------|
|
|-----------------------------------------------------|
|-----------22-------22-------22-------22-------22----|
|-17-----21----17-21----17-21----17-21----17-21----17-|
|-----------------------------------------------------|
|-----------------------------------------------------|
|-----------------------------------------------------|
|
|-----------------------------------------------------|
|-----------------------------------------------------|
|--2------2--2--2--2--2--2--2--2--2--2--2--2--2--2--2-|
|--x------x--x--x--x--x--x--x--x--x--x--x--x--x--x--x-|
|--0------0--0--0--0--0--0--0--0--0--0--0--0--0--0--0-|
|-----------------------------------------------------|


F# Eb
| | | | | | | | | | | | | | | |
/ / / / / / / / / / / / / / / /

TP ~~~~
|-22----------------------(22)r(22)-----------------------|
|---------------------------------------------------------|
|---------------------------------------------------------|
|---------------------------------------------------------|
|---------------------------------------------------------|
|---------------------------------------------------------|
|
|---------------------------------------------------------|
|-------24-------24-------------24--------24-------24-----|
|-21-23----21-23----21-23-----------21-23----21-23----21--|
|---------------------------------------------------------|
|---------------------------------------------------------|
|---------------------------------------------------------|
|
|---------------------------------------------------------|
|---------------------------------------------------------|
|--4--4--4--4--4--4--4--4--------4---4--4--4--4--4--4--4--|
|--x--x--x--x--x--x--x--x--------x---x--x--x--x--x--x--x--|
|--2--2--2--2--2--2--2--2--------2---2--2--2--2--2--2--2--|
|---------------------------------------------------------|


G#
4/4
| | | | | | | | | | | | | | | |
/ / / / / / / / / / / / / / / /

~~~~~
|-17b19----------------------------------17b19r===(17)p15-|
|---------------------------------------------------------|
|---------------------------------------------------------|
|---------------------------------------------------------|
|---------------------------------------------------------|
|---------------------------------------------------------|
|
|---------------------------------------------------------|
|----------17-------17-------17-------17-----------17-----|
|-14----16----14-16----14-16----14-16----14----16------14-|
|---------------------------------------------------------|
|---------------------------------------------------------|
|---------------------------------------------------------|
|
|---------------------------------------------------------|
|---------------------------------------------------------|
|---------------------------------------------------------|
|--2-----2--2--2--2--2--2--2--2--2--2--2--2-----2---2---2-|
|--x-----x--x--x--x--x--x--x--x--x--x--x--x-----x---x---x-|
|--0-----0--0--0--0--0--0--0--0--0--0--0--0-----0---0---0-|


A G
| | | | | | | | | | | | | | | |
/ / / / / / / / / / / / / / / /

~~~~~
|-17b19----------------15h17p===15p14----15----14----------|
|----------------------------------------------------15----|
|----------------------------------------------------------|
|----------------------------------------------------------|
|----------------------------------------------------------|
|----------------------------------------------------------|
|
|----------------------------------------------------------|
|----------20-------20-------------20-------20-------20----|
|-16----17----16-17----16----17-------16-17----16-17----16-|
|----------------------------------------------------------|
|----------------------------------------------------------|
|----------------------------------------------------------|
|
|----------------------------------------------------------|
|----------------------------------------------------------|
|--5-----5--5--5--5--5--5-----5-----5--5--5--5--5--5--5--5-|
|--x-----x--x--x--x--x--x-----x-----x--x--x--x--x--x--x--x-|
|--3-----3--3--3--3--3--3-----3-----3--3--3--3--3--3--3--3-|
|----------------------------------------------------------|


E
| | | | | | | | | | | | | | | |
/ / / / / / / / / / / / / / / /

~~
|-------------------------------------------------|
|-17----------------------------------------------|
|-------------------------------------------------|
|-------------------------------------------------|
|-------------------------------------------------|
|-------------------------------------------------|
|
|-------------------------------------------------|
|-------22-------22-------22-------22-------22----|
|-17-21----17-21----17-21----17-21----17-21----17-|
|-------------------------------------------------|
|-------------------------------------------------|
|-------------------------------------------------|
|
|-------------------------------------------------|
|-------------------------------------------------|
|--2--2--2--2--2--2--2--2--2--2--2--2--2--2--2--2-|
|--x--x--x--x--x--x--x--x--x--x--x--x--x--x--x--x-|
|--0--0--0--0--0--0--0--0--0--0--0--0--0--0--0--0-|
|-------------------------------------------------|


F# Eb
| | | | | | | | | | | | | | | |
/ / / / / / / / / / / / / / / /

|-------------------------------------------------|
|-------------------------------------------------|
|-------------------------------------------------|
|-------------------------------------------------|
|-------------------------------------------------|
|-------------------------------------------------|
|
|-------------------------------------------------|
|-------24-------24-------24-------24-------24----|
|-21-23----21-23----21-23----21-23----21-23----21-|
|-------------------------------------------------|
|-------------------------------------------------|
|-------------------------------------------------|
|
|-------------------------------------------------|
|-------------------------------------------------|
|--4--4--4--4--4--4--4--4--4--4--4--4--4--4--4--4-|
|--x--x--x--x--x--x--x--x--x--x--x--x--x--x--x--x-|
|--2--2--2--2--2--2--2--2--2--2--2--2--2--2--2--2-|
|-------------------------------------------------|


G#
4/4
| | | | | | | | | | | | | | | |
/ / / / / / / / / / / / / / / /

|-------19-------17-------19----------------------|
|-15s17----17s15----15s17-------------------10s12-|
|-------------------------------------------------|
|-------------------------------------------------|
|-------------------------------------------------|
|-------------------------------------------------|
|
|-------------------------------------------------|
|-------17-------17-------17-------17-------17----|
|-14-16----14-16----14-16----14-16----14-16----14-|
|-------------------------------------------------|
|-------------------------------------------------|
|-------------------------------------------------|
|
|-------------------------------------------------|
|-------------------------------------------------|
|-------------------------------------------------|
|--2--2--2--2--2--2--2--2--2--2--2--2--2--2--2--2-|
|--x--x--x--x--x--x--x--x--x--x--x--x--x--x--x--x-|
|--0--0--0--0--0--0--0--0--0--0--0--0--0--0--0--0-|


A G
| | | | | | | | | | | | | | | |
/ / / / / / / / / / / / / / / /

~~~~~
|-15----15-14b16r(14)----(14)p===12-------------------------12----------|
|----12--------------------------------15b17-------------------15----12-|
|-----------------------------------------------------------------------|
|-----------------------------------------------------------------------|
|-----------------------------------------------------------------------|
|-----------------------------------------------------------------------|
|
|-----------------------------------------------------------------------|
|-------20------------20---------------20----------20-------20----------|
|-16-17----16-----17----------16----17-------16-17----16-17-------16----|
|-----------------------------------------------------------------------|
|-----------------------------------------------------------------------|
|-----------------------------------------------------------------------|
|
|-----------------------------------------------------------------------|
|-----------------------------------------------------------------------|
|--5--5--5--5------5---5-------5-----5--5-----5--5--5--5--5--5-----5----|
|--x--x--x--x------x---x-------x-----x--x-----x--x--x--x--x--x-----x----|
|--3--3--3--3------3---3-------3-----3--3-----3--3--3--3--3--3-----3----|
|-----------------------------------------------------------------------|


E
| | | | | | | | | | | | | | | |
/ / / / / / / / / / / / / / / /

PM----------------------------------------------
|-------------------------------------------------------------------------|
|-------------------------------------------------------------------------|
|-14----------------------------------------------------------------------|
|-------------------------------------------------------------14-16----17-|
|-------------------------------------14-15----17-14-15----17-------------|
|-------------------------14-15----17-------------------------------------|
|
|-------------------------------------------------------------------------|
|-------22-------22-------22----------------22----------------22----------|
|-17-21----17-21----17-21-------17----21----------17----21----------17----|
|-------------------------------------------------------------------------|
|-------------------------------------------------------------------------|
|-------------------------------------------------------------------------|
|
|-------------------------------------------------------------------------|
|-------------------------------------------------------------------------|
|--2--2--2--2--2--2--2--2--2-----2-----2-----2-----2-----2-----2-----2----|
|--x--x--x--x--x--x--x--x--x-----x-----x-----x-----x-----x-----x-----x----|
|--0--0--0--0--0--0--0--0--0-----0-----0-----0-----0-----0-----0-----0----|
|-------------------------------------------------------------------------|


F# Eb
| | | | | | | | | | | | | | | |
/ / / / / / / / / / / / / / / /

----------------------------------------------------------------------------------------------|
|-------------------------------------------------------------15-17----19-------------15-17----19---|
|-------------------------------------15-17----19-16-17----19-------------16-17----19---------------|
|-------------14-16----17-14-16----17---------------------------------------------------------------|
|-14-16----17---------------------------------------------------------------------------------------|
|---------------------------------------------------------------------------------------------------|
|---------------------------------------------------------------------------------------------------|
|
|---------------------------------------------------------------------------------------------------|
|-------------24----------------24----------------24----------------24----------------24------------|
|-21----23----------21----23----------21----23----------21----23----------21----23----------21------|
|---------------------------------------------------------------------------------------------------|
|---------------------------------------------------------------------------------------------------|
|---------------------------------------------------------------------------------------------------|
|
|---------------------------------------------------------------------------------------------------|
|---------------------------------------------------------------------------------------------------|
|--4-----4-----4-----4-----4-----4-----4-----4-----4-----4-----4-----4-----4-----4-----4-----4------|
|--x-----x-----x-----x-----x-----x-----x-----x-----x-----x-----x-----x-----x-----x-----x-----x------|
|--2-----2-----2-----2-----2-----2-----2-----2-----2-----2-----2-----2-----2-----2-----2-----2------|
|---------------------------------------------------------------------------------------------------|


G#
4/4
| | | | | | | | | | | | | | | |
/ / / / / / / / / / / / / / / /

PM------------------| ~~~~
|-------------17-19----20-22b24----------(22)----------22b24r===(22)p19-|
|-17-19----20-----------------------------------------------------------|
|-----------------------------------------------------------------------|
|-----------------------------------------------------------------------|
|-----------------------------------------------------------------------|
|-----------------------------------------------------------------------|
|
|-----------------------------------------------------------------------|
|-------------17----------------17--------17--------17-----------17-----|
|-14----16----------14----16-------14-16------14-16----14----16------14-|
|-----------------------------------------------------------------------|
|-----------------------------------------------------------------------|
|-----------------------------------------------------------------------|
|
|-----------------------------------------------------------------------|
|-----------------------------------------------------------------------|
|-----------------------------------------------------------------------|
|--2-----2-----2-----2-----2-----2--2--2---2---2--2--2--2-----2---2---2-|
|--x-----x-----x-----x-----x-----x--x--x---x---x--x--x--x-----x---x---x-|
|--0-----0-----0-----0-----0-----0--0--0---0---0--0--0--0-----0---0---0-|


A G
| | | | | | | | | | | | | | | |
/ / / / / / / / / / / / / / / /

|-(19)----------------------------------------------*|
|---------------------------------------------------*|
|---------------------------------------------------*|
|---------------------------------------------------*|
|---------------------------------------------------*|
|---------------------------------------------------*|
|
|---------------------------------------------------*|
|---------20-------20-------20-------20-------20----*|
|--16--17----16-17----16-17----16-17----16-17----16-*|
|---------------------------------------------------*|
|---------------------------------------------------*|
|---------------------------------------------------*|
|
|---------------------------------------------------*|
|---------------------------------------------------*|
|---5---5--5--5--5--5--5--5--5--5--5--5--5--5--5--5-*|
|---x---x--x--x--x--x--x--x--x--x--x--x--x--x--x--x-*|
|---3---3--3--3--3--3--3--3--3--3--3--3--3--3--3--3-*|
|---------------------------------------------------*|