Stop Censorship
 
 

 
 1-9 a b c d e f g h i j k l m n o p q r s t u v w x y z
   Bad Hangover - Break The Law Tab    

This is one of my first real metal songs i ever write. Enjoy

Tunings

Gtr 1 DAFCGD (one step down)

Gtr 2 (acoustic) eBGDAE

Intro (play 2 times)

D-------------------------------------------------------------------------
A-------------------------------------------------------------------------
F-------------------------------------------------------------------------
C-------------------------------------------------------------------------
G-------------------------------------------------------------------------
D-17-17-17-17-18-12-x3-12-12-12-12----------------------------------------

After that play D-12-12-12-12 very many times and go on to this riff 4 times:

D-------------------------------------------------------------------------
A-------------------------------------------------------------------------
F-------------------------------------------------------------------------
C-------------------------------------------------------------------------
G-------------------------------------------------------------------------
D-12-12-12-12-12-12-13-13-------------------------------------------------

Then the main riff:

D-------------------------------------------------------------------------
A-------------------------------------------------------------------------
F-------------------------------------------------------------------------
C-10-10-10-10-11-5------5-5-5-5-------------------------------------------
G-10-10-10-10-11-5--x3--5-5-5-5-------------------------------------------
D-10-10-10-10-11-5------5-5-5-5-------------------------------------------

Verse (it sucks i know)

D-------------------------------------------------------------------------
A-3--3-3-3-3-3--3-3-3-3-3--3-3-3-3--[5]-[5]-------------------------------
F-------------------------------------------------------------------------
C-------------------------------------------------------------------------
G-------------------------------------------------------------------------
D-------------------------------------------------------------------------

Pre-chorus

D-------------------------------------------------------------------------
A-------------------------------------------------------------------------
F-------------------------------------------------------------------------
C-10-----10-----10-----10-10-10-------------------------------------------
G-10-----10-----10-----10-10-10-------------------------------------------
D-10-----10-----10-----10-10-10-------------------------------------------

Chorus is the same as the mainriff

after chorus play the main riff 2 times and then the first intro part

Verse

Pre-chorus

Chorus

Mainriff

First intro part

Mainriff one time

Bridge 1 (played by the acoustic guitarr) i think i have stole this part by someone but i cant remember who.

e-----------------0---2-3------------0-----------------0------------------
B-------------3-----3------------3-----3---3------------------------------
G-------0---2---2--------------0---0-----0--------2------2---2------------
D-----2---0-------------------------------------2---2------2--------------
A---2-----------------------3-----------------0---------------------------
E-0-----------------------------------------------------------------------

then play this chords. i have`nt write how much times you should play on each chord

Em D? D D? G? A?
e-0--0--2--3--0--0---------------------------------------------------------
B-0--3--3--3--3--0---------------------------------------------------------
G-0--2--2--2--0--2---------------------------------------------------------
D-2--0--0--0--0--2---------------------------------------------------------
A-2-----------3--0---------------------------------------------------------
E-0--------------0---------------------------------------------------------

Then back to dist and play the bridge (not the chords) and then play this

D-------------------------------------------------------------------------
A-------------------------------------------------------------------------
F-------------------------------------------------------------------------
C-5-----------------------------------------------------------------------
G-5-x16-------------------------------------------------------------------
D-5-----------------------------------------------------------------------

Chorus

First intro part

Outro

D-------------------------------------------------------------------------
A-------------------------------------------------------------------------
F-------------------------------------------------------------------------
C----------------12-------------------------------------------------------
G----------------12-------------------------------------------------------
D-17-17-17-17-18-12-------------------------------------------------------

Real beginner *** but fun to play if u know how it should goes.
Maybe you hear the song in the future:-)