Stop Censorship
 
 

 
 1-9 a b c d e f g h i j k l m n o p q r s t u v w x y z
   Barenaked Ladies - If I Had %241000000 Tab    

Artist: BNL
Song: If I had $1000000 (Yellow Tape Version)
Album: Shoe Box EP

Capo 2nd Fret; All positions relative to capo.

Fill 1: Fill 2: Fill 3:
G
-----------|---------|---------------|
-----------|---------|-0h1p0---------|
-----------|---------|-------2-0-----|
-----------|---------|-----------2-0-|
-----------|---------|---------------|
-0-0-0h2---|-0-2-----|---------------|

Rhy Fig 1:

---3-3-----3-3---2---2-2---3-3---3-3-|
---3-3-----3-3---3---3-3---3-3---3-3-|
---0-0-----0-0---2---2-2---0-0---0-0-|
---------------0---------------------|
-------0h2---------0-----3-----------|
-3-----------------------------3-----|

Rhy Fig 2:

---3-3-----3-3---2-2-0h2---3-3---3-|
---3-3-----3-3---3-3-3-----3-3---3-|
---0-0-----0-0---2-2-2-----0-0---0-|
---------------0-----------------x-|
-------0h2---------------3-------3-|
-3-----------------------------3---|

Rhy Fig 3:

(C9 D G C9)

C9: x32033
D: xx0232
G: 320033

The basic structure:

Fill 1 (Intro Riff)

Rhy Fig 1 \________Intro
Fill 2 \_____2x /
Rhy Fig 2 / /
Fill 3 / /

Fill 2
Rhy Fig 1 \______4x (Verse)
Fill 2 /
Rhy Fig 1/

Rhy Fig 3 (4x, Bridge)

Note: On "I`d buy your love..." you stay on the D chord, and I usually
do this little riff:

-3-2-0-2-|
-3-3-3-3-|
-2-2-2-2-|
-0-0-0-0-|
---------|
---------|

At the end of the song, they play a little fill, that`s usually something like this:
----------------------------|---------|-3--|
------------------0h1p0-----|---------|-3--|
--------0---------------2-0-|---------|-0--|
------0-------0h2-----------|-2-0-----|-0--|
----2-----2h3---------------|-----2-0-|-2--|
--3-------------------------|---------|-3--|
The middle part is from the "Rock Spectacle" version of the song. If you take that part out, you`ll have the "Yellow Tape" version.