Stop Censorship
 
 

 
 1-9 a b c d e f g h i j k l m n o p q r s t u v w x y z
   Barenaked Ladies - Light Up My Room Tab    

Song: Light Up My Room
Artist: Barenaked Ladies
Album: Stunt

6/8 Time (make sure you take this into account, otherwise it`s quite comfusing)

Riff 1 (Verse):
----------------------------------3-------
-------3-----------3---------3--------3---
-----0---0-------0---0-----0---0----0---3-
------------------------------------------
-------------------------3----------------
--3-----------2---------------------------

Riff 2 (Verse/Chorus Fill):
--------------------------------3-------
-------3--------3----------3--------3---
-----0---0----0---0------0---0----0---0--
-----------------------------------------
--1---------0----------------------------
----------------------3------------------

Riff 3 (Chorus):
-----------------------------3--------
------3--------3---------3-------3----
----0---0----0---0-----0---0---0---0--
--------------------------------------
--------------------------------------
--0--------2--------3-----------------

Chords (During the chordal parts... it`s rather obvious):
G: 320033
D/F#: 2x023x
C9: x32033

Enjoy!