Stop Censorship
 
 

 
 1-9 a b c d e f g h i j k l m n o p q r s t u v w x y z
   Barenaked Ladies - Pinch Me Tab    

Pinch Me recorded by the Barenaked Ladies
from the album "Maroon"

Note that I`m doing this from memory, therefore there may be a fret (give or take) difference in the tab. Listen to the song for the correct timing, and have fun with this killer song. Acoustic guitar, standard tuning.

Intro/Verse:
E----------------------------------|------------------------------------|
B-----1----------------------------|-----1------------------------------|
G----------------------0-----------|----------------0-------------------|
D-------------0--------0---0h2/3--|----------------0--------0-0h2/3---|
A---------------2-2h3--------------|------------------2-2h3-------------|
E--1----1h3-3----------------------|--1-----1h3-3-----------------------|


Pre-Chorus (like "All my stuff`s here anyway")
E--------------------------|
B------1---3-3-3-3-3-3-3---|
G------0---0-0-0-0-0-0-0---|
D------0---0-0-0-0-0-0-0---|
A------0---0-0-0-0-0-0-0---|
E--1---1---3-3-3-3-3-3-3---|

Chorus (Most of these chords are some strange form I don`t know the name for, so bear with me)

C G
I`ts like a dream ya try to remember but it`s gone then you
F D
Try to scream but it only comes out as a yawn when you
C G F G(2)
Try to see the world beyond your front door

Then it`s the same for the rest of the chorus. Here are the chords.

EADGBE
C: x32033
G: 320033
F: 01001x
D: 20023x
G(2): 03003x

There`s one additional chord used for the bridge.

Am7: x02010

Bridge:
G(2) Am7
Pinch Me, Pinch me
G(2) F
Cause I`m still, Asleep
G(2) Am7
Please God, Tell Me
G(2)
That I`m still asleep

Pre-Outro:
C G F G(2)
Try to figure out what all this is for.
C G F G(2)
Try to see the world beyond your front door.
C G F
Try to figure out what all this is for.

I don`t have the outro (it`s absoluteley insane). Sorry, but this should be good enough for now.